Song name
# A B C D E F G H I J K L M N O P Q R S T U V W X Y Z

Motorhead - Liar tab

Intro
Guitar 1
e|-------|---------------------------------------------------|
B|-------|---------------------------------------------------|
G|-------|---------------------------------------------------|
D|-------|---------------------------------------------------|
A|-------|-0h5h7p5p0-3h5p3p0-0-0-0-0h5h7p5p0-3h5p3p0-0-/12-\-|
E|--15\\-|-0h5h7p5p0-3h5p3p0-0-0-0-0h5h7p5p0-3h5p3p0-0-/12-\-|

Guitar two just plays a D5 chord (xx0232)

Verse
e|-------------------------------------|
B|-------------------------------------|
G|-------------------------------------|
D|-------------------------------------|
A|-3p0-0-0-0-0-0-0-0-3h4p3p0-0-0-0-0-0-|
E|-3p0-0-0-0-0-0-0-0-3h4p3p0-0-0-0-0-0-|

e|-------------------------------------|
B|-------------------------------------|
G|-------------------------------------|
D|-------------------------------------|
A|-3p0-0-0-0-0-0-0-0-3h4p3p4p3p0-0-0-0-|
E|-3p0-0-0-0-0-0-0-0-3h4p3p4p3p0-0-0-0-|

Verse Fill (replaces last bar of verse before 2nd chorus)
e|-------------------------------------------------|
B|-------------------------------------------------|
G|-------------------------------------------------|
D|-------------------------------------------------|
A|-3p0-0-0-0-0-0-0-0-03h4p3p03h4p3p03h4p3p03h4p3p0-|
E|-3p0-0-0-0-0-0-0-0-03h4p3p03h4p3p03h4p3p03h4p3p0-|

Chorus
                         A                          B
e|------------------------|--------------------------|
B|------------------------|--------------------------|
G|------------------------|--------------------------|
D|-5-----7----------------|-5-----7--7-7-7-7-7-7-7-7-|
A|-3--5--5----------------|-3--5--5--5-5-5-5-5-5-5-5-|
E|----5--0--0---0-3-0-5~~-|----5--0------------------|
                .   .                . . . . . . . .
                        A             C              D
e|------------------------|------------|--------------|
B|------------------------|------------|--------------|
G|------------------------|------------|--------------|
D|-5-----7----------------|-5-----7--3-|-3-3-3-3-3-3-3|
A|-3--5--5----------------|-3--5--5--1-|-1-1-1-1-1-1-1|
E|----5--0--0---0-3-0-5~~-|----5--0----|--------------|
                .   .                    . . . . . . .
1st Solo backing
e|-------------------------------------------------------------|
B|-------------------------------------------------------------|
G|-------------------------------------------------------------|
D|-------------------------------------------------------------|
A|-3-0-----0-0-0-0-0-----0-0-0-0-0-----0-0-0-0-0-----0-0-0-0-0-|
E|-3-0-----0-0-0-0-0-----0-0-0-0-0-----0-0-0-0-0-----0-0-0-0-0-|

Tap to rate this tab
 
# A B C D E F G H I J K L M N O P Q R S T U V W X Y Z