Song name
# A B C D E F G H I J K L M N O P Q R S T U V W X Y Z

Motorhead - Civil War tab



e|--------------------------------------------------|
B|--------------------------------------------------|
G|--------------------------------------------------|
D|--------------------------------------------------|
A|-0-3-5-3-0-3-6-6-6-5-3-5--0-3-5-3-0-3-6-6-6-6-5-3-|
E|-0-3-5-3-0-3-6-6-6-5-3-5--0-3-5-3-0-3-6-6-6-6-5-3-|

Verse
e|---------------------------------|---------------------------------|
B|---------------------------------|---------------------------------|
G|---------------------------------|---------------------------------|
D|---------------------------------|------------------6-5-3----------|
A|------------------8-7-5-2--------|------------------4-3-1-5--------|
E|-5-2222225-222222-8-7-5-2-222222-|-8-5555558-555555-------5-555555-|

Bridge
e|-------------------------------|------------------|
B|-------------------------------|------------------|
G|-------------------------------|------------------|
D|-------------------------------|------------------|
A|-------------------------------|------------------|
E|-5-2222222----5-2222225-222222-|-8-5555558-555555-|

Solo Back
e|-------------------|
B|-------------------|
G|-------------------|
D|-------------------|
A|-------------------|
E|-7-777777777710-10-|

Tap to rate this tab
# A B C D E F G H I J K L M N O P Q R S T U V W X Y Z