Song name
# A B C D E F G H I J K L M N O P Q R S T U V W X Y Z

Motorhead - Eat The Gun tab

Eat The Gun

e|-----------------|
B|-----------------|
G|-----------------|
D|-7-5-7--7--5-----|
A|-5-3-5-x5-x3-5-5-|
E|-------------3-3-|

Riff B
e|------------------|
B|------------------|
G|-------------7----|
D|----------9--7--9-|
A|----------9-----9-|
E|-7-7777777-77-77--|
   . ....... .. ..

Riff C
e|------------------|
B|------------------|
G|------------------|
D|------------------|
A|------------------|
E|-3-334-445-556-66-|
   . ... ... ... ..

Riff D
e|-----------------------------|
B|-----------------------------|
G|-----------------------------|
D|-------------3------------3--|
A|-5-5-5-3-5---1--5-5-5-3-5-13-|
E|-3-3-3-1-3-xx---3-3-3-1-3--1-|

Solo Backing
e|-------------------|
B|-------------------|
G|-------------------|
D|---------3-x-3-3---|
A|-5-3-5---1-x-1-1---|
E|-3-1-3-x-----------|
Tap to rate this tab
 
# A B C D E F G H I J K L M N O P Q R S T U V W X Y Z