Song name
# A B C D E F G H I J K L M N O P Q R S T U V W X Y Z

Motorhead - Im So Bad Baby I Dont Care tab

Intro

e|-------------------------------------------------------|
B|----13---13--------------------------------------------|
G|----12---12---12---14----------------------------------|
D|----10---10---12---14----2-2-------2-------------7--7--|
A|-00----0----0-10-0-12-0--0-0-0-3-4---4-3-0-----3-5--5--|
E|-------------------------------------------3-0---------|
   ..    .    .    .    .      .             . . .

e|-------------------------------------------------------|
B|----13---13--------------------------------------------|
G|----12---12---12---14----------------------------------|
D|----10---10---12---14----2-2-------2-------------5--5--|
A|-00----0----0-10-0-12-0--0-0-0-3-4---4-3-0-----3-3--3--|
E|-------------------------------------------3-0---------|
   ..    .    .    .    .      .             . . .

Prechorus (twice)
e|---------------------------------|
B|---------------------------------|
G|---------------------------------|
D|7-7777-77-7777-77-7777-77-7777-7-|
A|5-5555-55-5555-55-5555-55-5555-5-|
E|---------------------------------|

e|----------------------------------------------------|
B|----13---13------------------13---13----------------|
G|----12---12---12---14--------12---12---12---14------|
D|----10---10---12---14--2-2---10---10---12---14--5-7-|
A|-00----0----0-10-0-12--0-0------0----0-10-0-12--3-5-|
E|----------------------------------------------------|
   ..    .    .    .              .    .    .

Second time guitar 1 plays:
e|---------------------------------|
B|---------------------------------|
G|----------------------7-7---7----|
D|7-7777-77-7777-77---7---7-----7~-|
A|5-5555-55-5555-55-5-----5-5------|
E|---------------------------------|

Chorus
  Guitar 1
G|----------------------------------------------------|
D|-9-9999-99-9999-99-9999-99-9999-99-9999-99-9999---2-|
A|-7-7777-77-7777-77-7777-77-7777-77-7777-77-7777-7\0-|
E|----------------------------------------------------|
 |Guitar 2
G|-9-9999-99-9999-99-9999-99-9999-99-9999-99-9999-----|
D|-9-9999-99-9999-99-9999-99-9999-99-9999-99-9999-----|
A|-7-7777-77-7777-77-7777-77-7777-77-7777-77-7777-7\--|
E|----------------------------------------------------|

Bridge (with fills)
   Guitar                    Fill 1 Fill 2  Fill 3 (with delay)
e|--------------------------|------|-------|--9---|
B|--------------------------|-6----|-10----|-12brb|
G|-7---------------12--10---|-8brb-|-12brb-|------| 
D|-7---------------12--10---|------|-------|------|
A|-5---------------10--8----|------|-------|------|
E|--------------------------|------|-------|------|

Bridge end
e|---------------------------------|
B|---------------------------------|
G|-7---------------12--10----------|
D|-7---------------12--10----------|
A|-5---------------10--8---5-4-5-6-|
E|---------------------------------|

Solo Backing                      End 1   End 2 (last time)
e|-------------------------------|-------|---------|
B|-------------------------------|-------|---------|
G|-------------------------------|-------|---------|
D|-9-9999-99-9999-99-9999-99-999-|-7--7--|---------|
A|-7-7777-77-7777-77-7777-77-777-|-5--5--|-7-5-----|
E|-------------------------------|-------|-----7-5-|

Coda
e|----------------------------------------------------|
B|----13---13-----------------------------------------|
G|----12---12---12---14-------------------------------|
D|----10---10---12---14----2-2-------2-------------7\-|
A|-00----0----0-10-0-12-0--0-0-0-3-4---4-3-0-----3-5\-|
E|-------------------------------------------3-0------|
Tap to rate this tab
# A B C D E F G H I J K L M N O P Q R S T U V W X Y Z