Song name
# A B C D E F G H I J K L M N O P Q R S T U V W X Y Z

Motorhead - Them Not Me tab

e|-----------------|
B|-----------------|
G|-----------------|
D|-------------9-7-|
A|-------------7-5-|
E|-000000000000----|
   ............

Riff B
e|---------------------------------|
B|---------------------------------|
G|---------------------------------|
D|-------------7-7-------------7-5-|
A|-------------5-5-------------5-3-|
E|-555555555555----555555555555----|

Fill 1
e|-----------------------------|
B|-----------------------------|
G|-----------------------------|
D|------------------7-6-5------|
A|------------------5-4-3-7-5--|
E|-00000000000000000------7-5--|
   .................

Fill 2
e|---------------------------|
B|---------------------------|
G|---------------------------|
D|------------------7-6-5----|
A|------------------5-4-3----|
E|-00000000000000000---------|

Riff C
e|-------------------------------------------------------------|
B|-------------------------------------------------------------|
G|-------------------------------------------------------------|
D|-77777710--77777710102222225-5-2222225-5-77777718--7777771010|
A|-5555558---5555558-8-0000003-3-0000003-3-5555558---5555558-8-|
E|-------------------------------------------------------------|
   ......    ......    ......    ......    ......    ......

Riff D
e|-------------------------|
B|-------------------------|
G|-------------------------|
D|-2-4-5-2-4-5-2-4-5-2-4-5-|
A|-0-2-3-0-2-3-0-2-3-0-2-3-|
E|-------------------------|

Riff E
e|------------------|
B|------------------|
G|------------------|
D|------------------|
A|-5---3---5---0----|
E|-5---3---5---0----|


Tap to rate this tab
# A B C D E F G H I J K L M N O P Q R S T U V W X Y Z