Song name
# A B C D E F G H I J K L M N O P Q R S T U V W X Y Z

Motorhead - Asylum Choir tab

Motörhead-"Asylum Choir"
>From the March or Die album.
tabbed by guillermolupip:Lordaborto@mixmail.com
Tune down to Eb.

Main Riff
e|------------------------------------|
B|------------------------------------|
3|------------------------------------|
4|---9--7-9---------5-----7-9---------|
5|---7--5-7-050575------7-5-7-0505750-|
6|-00--0------------------------------|

Verse
1|-------------------------------|
2|-------------------------------|
3|-------------------------------|
4|---9--9--7--9--9----9--9-7-----|
5|---7--7--5--7--7----7--7-5-----|
6|-00--0--0--0------00--0--------|

Chorus
1|----------------------------------------------|
2|----------------------------------------------|
3|-------2----------2----------2----------2-----|
4|-----2---2------2---2------2---2------2---2---|
5|--0--------0----------------------------------|
6|-------------3--------3-2--------2-3--------3-|
   
Fill
1|---------------|
2|---------------|
3|-7^75----------|
4|-----75--------|
5|-------757-----|
6|---------5-----|

Bridge
1|---------------|
2|---------------|
3|---------------|
4|-9-99-99-97777-|
5|-7-77-77-75555-|
6|---------------|
Tap to rate this tab
 
# A B C D E F G H I J K L M N O P Q R S T U V W X Y Z