Song name
# A B C D E F G H I J K L M N O P Q R S T U V W X Y Z

Motorhead - Claw tab

Help us improve GuitareTab! Take a short survey!
Motrhead-"Claw"
Tabbed by guillermo luppi:Lordaborto@mixmail.com
Tune down to Eb.

Intro
e|----------|
B|----------|
G|----------|
D|---012345-|
A|-34-------|
E|----------|

Verse
e|-----------------------------------------|
B|-----------------------------------------|
G|-----------------------------------------|
D|-5-2-5-2---5-2-5-2---5-2-5-2---5-2-5-7---|
A|-3-0-3-0---3-0-3-0---3-0-3-0---3-0-3-5---|
E|-----------------------------------------|

Chorus
e|--------------------------------------------------------------|
B|--------------------------------------------------------------|
G|--------------------------------------------------------------|
D|---------77----------------77----------77--------------012345-|
A|-22------55----22------55--55--22------55----22------34-------|
E|-00------------00------33------00------------00---------------|

Bridge
e|-------------------------------------------|
B|-------------------------------------------|
G|-----------------------------------7-9-7-5-|
D|-5-2-5-2---7-4-7-4---107-107---107-5-7-5-3-|
A|-3-0-3-0---5-2-5-2---8-5-8-5---8-5---------|
E|-------------------------------------------|

Solo Backing (possibly bass only)
e|----------------|
B|----------------|
G|----------------|
D|-9-9-9999-9-9-7-|
A|-7-7-7777-7-7-5-|
E|----------------|

Coda
e|---------------------------------|
B|---------------------------------|
G|---------------------------------|
D|-22------44------66------77------|
A|-00------22------44------55------|
E|---------------------------------|
Related for Claw tab