Song name
# A B C D E F G H I J K L M N O P Q R S T U V W X Y Z

Motorhead - Deaf Forever tab

Band: Motorhead
Song: Deaf forever
Album: Orgasmatron
Transcriber: Robert Johnstone
Standard tuning

I do not know how to spell Motorhead with those two dots on the second "O" so it is spelt normally

E-------------------------------------------------------------------|
B-------------------------------------------------------------------|
G-------------------------------------------------------------------|
D---2--------4-4-4-4-4--------2------4-4-4-4-4--------4-4-4---------|
A---2--------4-4-4-4-4--------2------4-4-4-4-4--------4-4-4---------|
E---0--------2-2-2-2-2----0---0------2-2-2-2-2--------2-2-2---------|

E------------------------------------------------------------|
B------------------------------------------------------------|
G------------------------------------------------------------|
D---6---------3-3-3-3-3---------6---------3-3-3-3-3----------|
A---6---------3-3-3-3-3---------6---------3-3-3-3-3----------|
E---4---------1-1-1-1-1----0----4---------1-1-1-1-1----------|

E-------------------------------------------------|
B-------------------------------------------------|
G-------------------------------------------------|
D----6-----------------8---------------10---------|
A----6-----------------8---------------10---------|
E----4-----------------6---------------8----------|

E-------------------------------------------|
B-------------------------------------------|
G-------------------------------------------|
D--6-6-6-6-6-6-6------8-8-8-8-8-8-8---------|
A--6-6-6-6-6-6-6------8-8-8-8-8-8-8---------|
E--4-4-4-4-4-4-4------6-6-6-6-6-6-6---------|

E-------------------------------------------------------------------|
B-------------------------------------------------------------------|
G-------------------------------------------------------------------|
D---2--------4-4-4-4-4--------2------4-4-4-4-4--------4-4-4---------|
A---2--------4-4-4-4-4--------2------4-4-4-4-4--------4-4-4---------|
E---0--------2-2-2-2-2----0---0------2-2-2-2-2--------2-2-2---------|

E-------------------------------------------------|
B-------------------------------------------------|
G-------------------------------------------------|
D----6-----------------8---------------10---------|
A----6-----------------8---------------10---------|
E----4-----------------6---------------8----------|

That's all cool song off an cool album
Tap to rate this tab
# A B C D E F G H I J K L M N O P Q R S T U V W X Y Z