Song name
# A B C D E F G H I J K L M N O P Q R S T U V W X Y Z

Motorhead - Shoot You In The Back tab

Motörhead-"Shoot you in the back"
tabbed by guillermo luppi:Lordaborto@mixmail.com

Tune down to Eb (half a step)

Intro
1|---------------------------|---------------------------|
2|---------------------------|---------------------------|
3|--------------------5-7-5--|--------------------5-7-5--|
4|-----7~----7~----7--5-7-5--|-----7~----7-----7~-5-7-5--|
5|-0000--0000--0000----------|-0000--0000--0000----------|
6|---------------------------|---------------------------|

Verse
1|-------------------|
2|-------------------|
3|------5-7----------|
4|------5-7------5-7-|
5|-0000-----0000-----|
6|-------------------|

Chorus
1|---------------------------------|-------------------------------|
2|--play-this-bit-three-times------|-------------------------------|
3|---------------------------------|-------------------------------|
4|-5/7-7-7-7-7-7-7-7-7-7-7-7-7-7-5-|-5/7-7-7-7-7-7-7-9-9-9-9-9--9\-|
5|-3/5-5-5-5-5-5-5-5-5-5-5-5-5-5-3-|-3/5-5-5-5-5-5-5-7-7-7-7-7--7\-|
6|---------------------------------|-------------------------------|
Tap to rate this tab
# A B C D E F G H I J K L M N O P Q R S T U V W X Y Z