Song name
# A B C D E F G H I J K L M N O P Q R S T U V W X Y Z

Motorhead - Lawman tab

Artist: Motorhead
Song: Lawman
Album: Bomber
Tabbed By: Menno Roymans (the doctor)

Tuning: Eb


Riff one:
 Eb Db Eb
--------------------|
--------------------|
----7--9---7-9--7---| play 6 times
-2--7--9---7-9--7---|
-2--5--7---5-7--5---|
-0------------------|

stum first chord two times in the beginning.


Riff two:

--------------------|
--------------------|
-----7--9---12------| play 4 times
-22--7--9---12-12---|
-22--5--7---10-12---|
-00------------10---|

Only stum the first chord the first time.


Riff three:
 Gb			    Ab
----------------------------------|
----------------------------------|
----------------------------33----| play 2 times
-55--5-3--------55--5-3-----33----|
-55------5-3----55------5-3-11----|
-33----------6--33----------------|


Riff four:

--------------------|
--------------------|
-12--10---12--10----| play 4 times
-12--10---12--10----|
-10--8----10--8-----|
--------------------|

Then play:
4x Riff one
4x Riff two
2x Riff three
4x Riff four

Under solo play:
4x Riff one
2x Riff three
4x Riff four

Then play:
4x Riff one
4x Riff two
2x Riff three
4x Riff four
repeat Riff one 'till fade.

That's it, for comments mail to mennodeman@hotmail.com
Tap to rate this tab
# A B C D E F G H I J K L M N O P Q R S T U V W X Y Z