Song name
# A B C D E F G H I J K L M N O P Q R S T U V W X Y Z

Motorhead - In The Name Of Tragedy tab

-------------------------------------------------------------------------------
			     IN THE NAME OF TRAGEDY - Motorhead
-------------------------------------------------------------------------------
Tabbed by: B. McKersey
Email:rictusgrin666@lycos.com



Tuning: Eb


Riff 1
e|----------------------------------|----------------------------------|
B|----------------------------------|----------------------------------|
G|----------------------------------|----------------------------------|
D|--------------------------------5-|--------------------------------5-|
A|-----7-----7----77----7-----5-----|-----7-----7----77----7-----5-----|
E|-000---000---00---000---006---6---|-000---000---00---000---006---6---|


Verse
e|---------------------------------|---------------------------------|
B|---------------------------------|---------------------------------|
G|---------------------------------|---------------------------------|
D|-------------------------5-4-2-5-|-------------------------7/8\7~--|
A|-------------------------3-2-0-3-|-------------------------5/6\5~--|
E|-0-0-0-0-0-0-0-0-0-0-0-0---------|-0-0-0-0-0-0-0-0-0-0-0-0---------|

e|---------------------------------|---------------------------------|
B|---------------------------------|---------------------------------|
G|---------------------------------|---------------------------------|
D|-------------------------5-4-2-5-|---------------------------------|
A|-------------------------3-2-0-3-|-----------------7-6-5---5-4-3---|
E|-0-0-0-0-0-0-0-0-0-0-0-0---------|-0-0-0-0-0-0-0-0-5-4-3---3-2-1---|


Riff 2
e|-----------------|
B|-----------------|
G|-----------------|
D|-----------------|
A|-5---4---3---0-0-|
E|-3---2---1---0-0-|


Riff 3
e|-----------------|-----------------|-----------------|-----------------|
B|-----------------|-----------------|-----------------|-----------------|
G|-----------------|-----------------|-----------------|-----------------|
D|-----------------|-----------------|-----------------|-----------------|
A|-------------9---|------------10\9-|-------------9---|-8-8-8-8-5-5-5-5-|
E|-0-0-0-0-0-0-7---|-0-0-0-0-0-0-9\7-|-0-0-0-0-0-0-7---|-6-6-6-6-3-3-3-3-|


Riff 4
e|-----------------|
B|-----------------|
G|-----------------|
D|---------------5-|
A|-----7-----5-----|
E|-0-0---0-6---6---|

e|---------------------------------------------------------------------|
B|---------------------------------------------------------------------|
G|---------------------------------------------------------------------|
D|---------------------------------------------------------------------|
A|---------------------------------------------------------------------|
E|-0-0-0-0-0-0-0-0-0-0-0-0-0-0-0-0-0-0-0-0-0-0-0-0-0-0-0-0-0-0-0-0-0-0-|

| /  slide up
| \  slide down
| h  hammer-on
| p  pull-off
| ~  vibrato
| +  harmonic
| x  Mute note
===============================================================================


Tap to rate this tab
 
# A B C D E F G H I J K L M N O P Q R S T U V W X Y Z