Song name
# A B C D E F G H I J K L M N O P Q R S T U V W X Y Z

Motorhead - Motorhead tab

solo                                                -- 
eb:--------------------------------------------/-------------------------------------------|
Bb:----14b-------------12---------------12-14b/-14--12-14-12b------------12----12---12--12-|
Gb:-12-14b-14p12-14p12-12---------------12-14b--14--12-14-12b----12--14b---14b---14b--14b--|
Db:------------------------14-12-14--14-----------------------14---------------------------|
Ab:----------------------------------------------------------------------------------------|
Eb:----------------------------------------------------------------------------------------|
                                                        --                       --
:------------------------------------------------------/------------------------/----------|
:-----12-15p12----------------------------------12-14b/-14--12-14-12b----12-14b/-14--12-12-|
:-14b----------15-12h14p12----12-14-12h14p12----12-14b--14--12-14-12b----12-14b--14--12-12-|
:--------------------------14----------------14-----------------------14-------------------|
:------------------------------------------------------------------------------------------|
:------------------------------------------------------------------------------------------|

          ------------   2 times ----------------
eb:-----|-----------------------------------------|------------------------------------12b-|
Bb:-12b-|-12-14b-14~----------------14b-14~~-12~~-|----12-----12-----12------12-----12-15b-|
Gb:-12b-|-12-14b-14~-12h14p12----12-14b-14~~-12~~-|-14b---14b----14b-----14b----14b--------|
Db:-----|---------------------14------------------|----------------------------------------|
Ab:-----|-----------------------------------------|----------------------------------------|
Eb:-----|-----------------------------------------|----------------------------------------|

:-12b-12b-12b-12b-12b----------------------------------------------------------------------|
:-15b-15b-15b-15b-15b----------------------------------------------------------------------|
:-------------------------------------------------------------------12h14p12----12h14p12---|
:-------------------------------------12h14p12----------12h14p12-14----------14----------14|
:----------------------------12h14p12----------14p12-14------------------------------------|
:----------------------12h15---------------------------------------------------------------|
                                                                                 slide down
:------------------------------------------------------------------------------------------|
:----------------14b-----------------------------------------------------------------------|
:-12h14p12----12-14b-12h14p12----12h14p12--------------------------------------------------|
:----------14-----------------14----------14-12-14-12----12-----12----12-----12-----12-----|
:-----------------------------------------------------14----14b---14b----14b----14b-----10/|
:------------------------------------------------------------------------------------------|

:-------------------------------------------|
:-------------------------------------------|
:-------------------------------------------|
:---9---9---9---9--9---9---9---9----7-7-7-8-|
:---7---7---7---7--7---7---7---7----5-5-5-6-|
:-0---0---0---0--0---0---0---0---0----------|

   ---------3 times--------------
eb:-----12-12-12-12--------------|--------------------------------------------------------|
Bb:-----12-12-12-12--14-14p12----|-12----12--14b--14b-14b---------------------------------|
Gb:-/12-12-12-12-12--14-14p12----|-12----12--14b--14b-14b--14-12-14-14-12----12-----------|
Db:---------------------------14-|----14----------------------------------14-----14-12-14-|
Ab:------------------------------|--------------------------------------------------------|
Eb:------------------------------|--------------------------------------------------------|

:-----------------------------------------12b-12b-12b-12b-12b-12b-12b-12b-12b-12b-12b-12b-|
:---------12-----12-----12-----12-----12--15b-15b-15b-15b-15b-15b-15b-15b-15b-15b-15b-15b-|
:-12--14b----14b----14b----14b----14b-----------------------------------------------------|
:-----------------------------------------------------------------------------------------|
:-----------------------------------------------------------------------------------------|
:-----------------------------------------------------------------------------------------|

     repeat              repeat
eb:-12-15-12-14-12----|-------------------|----------------------------------------|
Bb:----------------15-|-12-15-12-15-12----|----------------------------------------|
Gb:-------------------|----------------14-|-12-14-12-14-12-------------------------|
Db:-------------------|-------------------|----------------14-12-14-12-------------|
Ab:-------------------|-------------------|----------------------------14-12-14-12-|
Eb:-------------------|-------------------|----------------------------------------|

                    repeat                 
:-------------|------------------|
:----------12-|---------------12-|
:----------12-|---------------12-|
:----12-14----|-14-12-14-12------|
:-14----------|-------------14---|
:-------------|------------------|

                                                slide down
:--------------------------------------------------|
:--------------------------------------------------|
:--------------------------------------------------|
:-14-12-14-12----12-----12----12-----12-----12-----|
:-------------14----14b---14b----14b----14b-----10/|
:--------------------------------------------------|

:-------------------------------------------|
:-------------------------------------------|
:-------------------------------------------|
:---9---9---9---9--9---9---9---9----7-7-7-8-|
:---7---7---7---7--7---7---7---7----5-5-5-6-|
:-0---0---0---0--0---0---0---0---0----------|
Tap to rate this tab
# A B C D E F G H I J K L M N O P Q R S T U V W X Y Z