Song name
# A B C D E F G H I J K L M N O P Q R S T U V W X Y Z

Motorhead - Whorehouse Blues tab

                               Whorehouse Blues - Motorhead                               


                                                                       
Lead guitar

Tuning : 1/2 step down



D#||-------||--------|--------||---------||-------|-------||---------||-------|
A#||-------||--------|--------||---------||-------|-------||---------||-------|
F#||-------||*-------|-------*||*-------*||-------|-------||*-------*||-------|
C#||-------||*-------|-------*||*-------*||-------|-------||*-------*||-------|
G#||-------||--------|--------||---------||-------|-------||---------||-------|
D#||-------||--------|--------||---------||-------|-------||---------||-------|



                                                      H        Q.     S  S  
|---------||-------|-------|-------|-------|-------|-----------------------|
|---------||-------|-------|-------|-------|-------|-----------------------|
|*-------*||-------|-------|-------|-------|-------|-----------------------|
|*-------*||-------|-------|-------|-------|-------|------------------7h-9-|
|---------||-------|-------|-------|-------|-------|-----------------------|
|---------||-------|-------|-------|-------|-------|-----------------------|


   S S S S S S S S S Q.      S    E  E   S E.  S E.  S  E.   
-------------------------------|----------------------------|
--10-8-----5-------------------|---------8-----8-----8\-5---|
-------9-7---7-5---5-----------|---------7-----7-----7\-5---|
-----------------7---7~--------|----------------------------|
-------------------------------|-----7/---------------------|
-------------------------------|----------------------------|


  Q     Q.      S E  S E      Q     H.            
--------------------------|----------------------|
--5~-----------10----8----|--10~-----------------|
--5~------------9----7----|---9\-----------------|
--------------------------|----------------------|
--------------------------|----------------------|
--------------------------|----------------------|


  E   S  E    S  E    S  E.    S  S S  S   
-----12------12------12-------------------|
--------12b-----12b-----12b---10-10-8-10~-|
------------------------------------------|
------------------------------------------|
------------------------------------------|
------------------------------------------|


  S. S E.   T. T. T. T. T. T. T. T. S S.  E      H.            E  E   
-----9--------------12-10--------------------|-----------------------|
--L--------10-12-10-------13-10----13----13--|--10~------------------|
--L-----------------------------11-----------|-----------------------|
---------------------------------------------|-----------------------|
---------------------------------------------|-----------------------|
---------------------------------------------|-----------------------|


  E  E    E    S   E.   E   E   E        S.  E    S   E   E.   Q     S S.  
-------------------------------------|-------------------------9-------8--|
--------(12)--10-/12---10--12--12br--|---L-(10)--12br-L--10~--------10----|
-------------------------------------|------------------------------------|
-------------------------------------|------------------------------------|
-------------------------------------|------------------------------------|
-------------------------------------|------------------------------------|


   S  S  E    S  S E  E   E   S S E      S   S E  Q.      S S  S S S S  
--11b---10~---------------------------|--------------------------------|
-------------10p-9-8------8--10-8-----|-----------------------10---8---|
----------------------9~----------9~--|--------------------------9---7-|
--------------------------------------|--9s-10-9--7~------7-9----------|
--------------------------------------|--------------------------------|
--------------------------------------|--------------------------------|


  Q.      S S E   S E.  E      E  E  E  Q     E  E  E    
----------8---8-----5---8~--|--L--8-----8~----------8~--|
----------8---8~----5---8~--|--L--8-----8~----------8~--|
--9~--------9-----9---------|--------9--------9---------|
----------------------------|---------------------------|
----------------------------|---------------------------|
----------------------------|---------------------------|


  S S S S E    T. T. S  T S  T. T.  S T. T. E   
--L--------------------------------------------|
--L---8---8b--10p-8-----8-9b-------10----------|
----9---9------------9~------8h-9--------------|
--------------------------------------9s-7--5--|
-----------------------------------------------|
-----------------------------------------------|


   E   S E   S E   Q     E   E      E   E   E  S. E  E  S.   S S  S  
--------------------------------|------------------------------8----|
------10----10----10\-------10--|--13--12--10--7s-6--5-----/10---10-|
-------9-----9-----9\--------9--|--12--11---9--9s-7--5--------------|
--------------------------------|-----------------------------------|
--/7----------------------------|-----------------------------------|
--------------------------------|-----------------------------------|


           >             >                >                        
  S  E.    Q      Q      Q         Q      Q      Q      S  S  E    
--8----------------------------|-----------------------------10b--|
----10~---10~----10~----10~----|--10~----10~----10~---------------|
-------------------------------|-----------------------12-12------|
-------------------------------|----------------------------------|
-------------------------------|----------------------------------|
-------------------------------|----------------------------------|


  E   S S  S S  S S  Q.       S S     S  S   S S  S S E    S S. S  S  S.S  S  
--L--10---12---10---10b------10-8-|--10-10b-10-8-10---8~--------8-------8----|
----------------------------------|-----------------------10------10-10---10-|
----------------------------------|--------------------------9~--------------|
----------------------------------|------------------------------------------|
----------------------------------|------------------------------------------|
----------------------------------|------------------------------------------|


  Q.      S.  E   S S S S  E  T    E  S.  E  E  Q       S.S.  S. 
----------------------8---------|------------8--8br----10-8--10-|
-----------------10-------10--L-|--L--8s-10---------------------|
--9~------9s-11-----------------|-------------------------------|
--------------------------------|-------------------------------|
--------------------------------|-------------------------------|
--------------------------------|-------------------------------|


                              W  W  W       W  W  W  W                   
  S. S.  S. S. S. S.  S.  S.  S. S. S    T  S. S. S. S.  Q     S Q    T  
--8-----------------------------------|---------------------------------|
-----8b-10-10-10-10~-10~-10~-10-10-10-|--L-10-10-10-10~-10\-------------|
--------------------------------------|------------------------x--------|
--------------------------------------|------------------------x--------|
--------------------------------------|---------------------------------|
--------------------------------------|---------------------------------|



Duration Legend
---------------
W - whole
H - half
Q - quarter
E - 8th
S - 16th
T - 32nd
X - 64th
. - note dotted
|-n-|  - n-tuplets


Tablature Legend
----------------
L - tied note
x - dead note
g - grace note
(n) - ghost note
> - accentuded note
NH - natural harmonic
AH - artificial harmonic
TH - tapped harmonic
SH - semi harmonic
PH - pitch harmonic
h - hammer on
p - pull off
b - bend
br - bendRelease
pb - preBend
pbr - preBendRelease
brb - bendReleaseBend
\n/ - tremolo bar dip
\n - tremolo bar dive
-/n - tremolo bar Release up
/n\ - tremolo bar inverted dip
/n - tremolo bar return
-\n - tremolo bar Release down
S - shift slide
s - legato slide
/ -  slide into from below or out of upwards
\ -  slide into from above or out of downwards
~ - vibrato
W - wide vibrato
tr - trill
TP - tremolo picking
T - tapping
S - slap
P - pop
< - fade in
^ - brush up
v - brush down

*Special thanks to s0undTrip_ph0 for making the source gp tab*
Tap to rate this tab
# A B C D E F G H I J K L M N O P Q R S T U V W X Y Z