Song name
# A B C D E F G H I J K L M N O P Q R S T U V W X Y Z

Motorhead - No Class tab

ARTIST:MOTORHEAD.
SONG:NO CLASS.
ALBUM:THE BEST OF MOTORHEAD.
TUNING:HALF STEP 1/2.
TAB:LOPEZ017.

e----------------------------------------------------------|
B----------------------------------------------------------|
G---7-7-5--7-7-5-------------------------------------------|
D---7-7-5--7-7-3-------------------------------------------|
A---5-5-3--5-5-3-------3-----------------------------------|
E----------------0h3h5-------------------------------------|


---------------------------------------------------------|
---------------------------------------------------------|
---------5555----77-77-77-77--------5555----99-99-99-99--|
---3333--5555----77-77-77-77--3333--5555----99-99-99-99--|
---3333--3333---055055055055--3333--3333---077077077077--|
---1111-----------------------1111-----------------------|


Second chorus

*Note* Mute the open notes.

---------------------------------------------------------|
---------------------------------------------------------|
--7-7-5---7-7-5--2-----7-7-5---7-7-5---22----------------|
--7-7-5---7-7-5--2-----7-7-5---7-7-5---22----------------|
--5-5-3---5-5-3--------5-5-3---5-5-3-------00------------|
---------------------------------------------------------|

Second chorus (continued)

---------------------------------------------------------|
---------------------------------------------------------|
----7-7-5---7-7-5---22----7-7-5--7-7-5-------------------|
----7-7-5---7-7-5---22----7-7-5--7-7-5-------------------|
----5-5-3---5-5-3---------5-5-3--5-5-3-------------------|
---------------------------------------------------------|

Solo riff

---------------------------------------------------------|
---------------------------------------------------------|
--77777777-5-7-5-7-5-7-5-7-5-7-5-7-5-7-5-7-----55-----77-|
--77777777-5-7-5-7-5-7-5-7-5-7-5-7-5-7-5-7-----55-----77-|
--55555555-3-5-3-5-3-5-3-5-3-5-3-5-3-5-3-5--0--33--0--55-|
---------------------------------------------------------|

Solo Riff (continued)

---------------------------------------------------------|
---------------------------------------------------------|
-----99-----99-----99-----99-----------------------------|
-----99-----99-----99-----99-----------------------------|
--0--77--0--77--0--77--0--77-----------------------------|
---------------------------------------------------------|

After this, play the verse, pre-chorus, and 1st chorus once more.
Tap to rate this tab
# A B C D E F G H I J K L M N O P Q R S T U V W X Y Z