Song name
# A B C D E F G H I J K L M N O P Q R S T U V W X Y Z

Motorhead - We Are Motorhead tab

-------------------------------------------------------------------------------
			     WE ARE MOTÖRHEAD - MOTÖRHEAD
-------------------------------------------------------------------------------


Tabbed by: Motorhead

Intro

Eb)----------------------------------|
Bb)----------------------------------|
Gb)-7-7-7-7-5--7-7-7-7-5-/-----------|
Db)-7-7-7-7-5--7-7-7-7-5-/-----------|   Repeat to Bridge
Ab)-9-9-9-9-7--9-9-9-9-7-/-----------|
Eb)----------------------/-----------|

Bridge

      S5      E5   D5  E5    D5
Eb)-------------------------------|
Bb)-------------------------------|
Gb)-----------7-7-7-5--7-7-7-5----| Repeat 3 times
Db)---7~------7-7-7-5--7-7-7-5----|
Ab)---7~------9-9-9-7--9-9-9-7----|
Eb)---5~--------------------------|

                      Back to inro riff
Eb)--------------------------------------------------|
Bb)--------------------------------------------------|
Gb)--5~-----7~--------7-7-7-5--7-7-7-5--7-7-7-5------|
Db)--5~-----7~--------7-7-7-5--7-7-7-5--7-7-7-5------|
Ab)--3~-----5~--------9-9-9-7--9-9-9-7--9-9-9-7------|
Eb)--------------------------------------------------|


Eb)-------------------|
Bb)-------------------|
Gb)--5~-----7~--------|
Db)--5~-----7~--------|
Ab)--3~-----5~--------|
Eb)-------------------|

Outro

Eb)------------------|
Bb)------------------|
Gb)---7-5-7-7--------|  Repeat 8 times
Db)---7-5-7-7--------|
Ab)---9-7-9-9--------|
Eb)------------------|


| /  slide up
| \  slide down
| h  hammer-on
| p  pull-off
| ~  vibrato
| +  harmonic
| x  Mute note
===============================================================================
Tap to rate this tab
# A B C D E F G H I J K L M N O P Q R S T U V W X Y Z