Song name
# A B C D E F G H I J K L M N O P Q R S T U V W X Y Z

Motorpsycho - Hey Jane tab

Help us improve GuitareTab! Take a short survey!
Motorpsycho is by far the best band in Norway, perhaps even in all of Europe.
I wouldn't go as far as say best in the world, but they're dang so close. Their
homepage is:

http://motorpsycho.fix.no/

Hey, Jane is one of their most earcatching songs. 

Melody line:
e-----------------------------5~----5-5-5-5h6p5----------------------------
B----------------------------------------------8-6----6-6-6-6--------------
G----7~--5---7~-------7~--5-----------------------------------7------------
D----------8----------------8-----------------------------------8----5-8---
A--------------------------------------------------------------------------
E--------------------------------------------------------------------------

e--------------------------------------------------------------------------
B----6-6-6-6---------------------------------------------------------------
G------------7-------------------------------------------------------------
D--------------8----5-8----------------------------------------------------
A--------------------------------------------------------------------------
E--------------------------------------------------------------------------


Bridge:

e----777-----4----0--------------------------------------------------------
B----777-----4----0--------------------------------------------------------
G----777-----4----0--------------------------------------------------------
D----777-----4----0--------------------------------------------------------
A----777-----4----0--------------------------------------------------------
E----777-----4----0--------------------------------------------------------


The sitar sounds:

e----8-8-8-8-6-3-5---6---5---3---------------------------------------------
B--------------------------------------------------------------------------
G--------------------------------------------------------------------------
D--------------------------------------------------------------------------
A--------------------------------------------------------------------------
E--------------------------------------------------------------------------


You think you know better? Write to orangillustrert@hotmail.com and let me hear it!
Related for Hey Jane tab