Song name
# A B C D E F G H I J K L M N O P Q R S T U V W X Y Z

Motorpsycho - The Alchemyst tab

Just the part with vocals, will add the intro later

3:22

   repeat 8 times
E|-------------------------------------------|
B|-------------------------------------------|
G|-------------------------------------------|
D|-7----------5---------7----------5---------|
A|-7--------------------7--------------------|
E|-5----5-7-8---8-7-5---5----5-7-8---8-7-5---|

3:45

verse 1 and 2

E|-----------------------------------------------------------------|
B|-----------------------------------------------------------------|
G|-----------------------------------------------------------------|
D|-----------------------------------------------------------------|
A|-----------------------------------------------------------------|
E|-3-3-3-3-3-3-3-3-3-3-3-3-3-3-3-3-3-3-3-3-3-3-3-3-3-3-3-3-3-3-3-3-|
     . . .   . . .   . . .   .   .   . . .   . . .   . . .   .   .

E|----------------------------------------------------|
B|------------------8----------------------8----------|
G|----------------------------------------------------|
D|------7----7-9-10---10-9-7---7----7-9-10---10-9-7---|
A|------7----------------------7----------------------|
E|-3-5--5----------------------5----------------------|

chorus 1

E|----------------------------------------------------------------------------------|
B|-------------------------------------------------------------3-------3------------|
G|--------------------------------------------------------------3-0-3----3----------|
D|-7-----7-4-5-----5-7-4-----4-5-----4-5-7-----7-4-5-----5-7-3--------------2222222-|
A|-5-----5-2-4-----3-5-2-----2-4-----2-4-5-----5-2-4-----3-5-1--------------0000000-|
E|----------------------------------------------------------------------------------|

chorus 2
           repeat 3 times
E|---------------------------------------|
B|---------------------------------------|
G|---------------------------------------|
D|-7-----7-4-5-----5-7-4-----4-5-----4-5-|
A|-5-----5-2-4-----3-5-2-----2-4-----2-4-|
E|---------------------------------------|

                          repeat 3 times
E|----------------------|---------------------|------------------------------|
B|----------------------|-3-------3-----------|-3-------3--------------------|
G|----------------------|---3-0-3---3---------|---3-0-3---3------------------|
D|-7-----7-4-5-----5-7-3|--------------2222222|--------------22-22-22-2225---|
A|-5-----5-2-4-----3-5-1|--------------0000000|--------------00-00-00-0005---|
E|----------------------|---------------------|--------------------------3---|

aaaaaand space out


. palm-muted
Tap to rate this tab
# A B C D E F G H I J K L M N O P Q R S T U V W X Y Z