Song name
# A B C D E F G H I J K L M N O P Q R S T U V W X Y Z

Mott The Hoople - Sucker tab

Highlighted       Show chord diagrams
---------------------------------------------------------------------------
                       Sucker - Mott The Hoople
---------------------------------------------------------------------------

Tabbed By:Me.

By: I.Hunter/M.Ralphs/P.O.Watts

Album: All The Young Dudes

Awesomeness: veeery High!



B                                       B                         A Em B
Hi there your friendly neighbourhood sadist want to take you for a ride
   B                                                    A Em B
Come on tell me 'bout the nights that I make you cry
                                                     A Em B
Two tiny purple hands crawling out across the floor
B                                                    A
All I could hear was a voice 'give me more more more'

B                  B
My baby call me when she want a tale
B                  B Em B
My baby call me when she want a tale
B                  B Em B
My baby call me when she want a tale
       A                 B              Em
She knows its right in her heart I never fail

She's a sucker

Acc Gtr1:
|-9*-7-9-7-9-----|
|-----------10-7-|
|----------------|
|----------------|
|----------------|
|----------------|

El Gtr2:
|---------------|
|---------------|
|-4---4---4-2---|
|-4---4---4-2-2-|
|-2-0-2-0-2-0-2-|
|---------------|

God help the woman who's late for work I can't a green light flashing red
Like a superstar camptown queen who's crown I bled
Now I just ran out of aspirin for an aching head
So I guess I'll have to do it just one more time instead
My baby call me when she want a tale
My baby call me when she want a tale
My baby call me when she want a tale
She knows its right in her heart I never fail
She's a sucker

Gtr1:
|-9*-7-9-7-9-----|
|-----------10-7-|
|----------------|
|----------------|
|----------------|
|----------------|

Gtr2:
|---------------|
|---------------|
|-4---4---4-2---|
|-4---4---4-2-2-|
|-2-0-2-0-2-0-2-|
|---------------|

Good games play games no names well that's alright if you can stand the pain

You can smoke my cigar all night through the link in your chain
Stand up baby its time to go
Well look what's here maybe if we do it slow
My baby call me when she want a tale
My baby call me when she want a tale
My baby call me when she want a tale
My baby call me when she want a tale
My baby call me when she want a tale
My baby call me when she want a tale

Hate Mail is welcome :-)

as long as you send it to someone else.
Tap to rate this tab
# A B C D E F G H I J K L M N O P Q R S T U V W X Y Z