Song name
# A B C D E F G H I J K L M N O P Q R S T U V W X Y Z

Mott The Hoople - All The Young Dudes tab

Hi ive decided to make the acoustic nice part nobody else has it.It is also simple its 
simple.

There you go very easy.

note-have this song very soft on electric guitar you can play the acoustic on electric 
very soft.

Have fun.

-14-----14---12-14-12-14-12--9--10----10---9-10-9-10-9--7-5-9-9-9-9-7-5-5---|
---15-----------------------------12----------------------------------------|
-----14-----------------------------12--------------------------------------|
----------------------------------------------------------------------------|
----------------------------------------------------------------------------|
----------------------------------------------------------------------------|
continues on the high part down here.
                                   Acoustic part.
-9-9-9-9-7-5-18---0------0-----0-----0-----0--------------------------------|
------------------1------0-----1-----0-----1--------------------------------|
------------------0--x4--0--x4-2--x4-0--x4-0-repeat this a few times.-------|
------------------2------0-----2-----0-----2--------------------------------|
------------------3------2-----0-----2-----3--------------------------------|
------------------0------0-----0-----0-----0--------------------------------|
Tap to rate this tab
# A B C D E F G H I J K L M N O P Q R S T U V W X Y Z