Song name
# A B C D E F G H I J K L M N O P Q R S T U V W X Y Z

Mott The Hoople - One Of The Boys tab

-----------------------------------------------------------------------
			     ONE OF THE BOYS - Mott The Hoople
-----------------------------------------------------------------------
Tabbed by:Ben Holland
Email:ben_holland@hotmail.com

Tuning:EADGBe

Intro: Repeat 3 or 4 times

  D                     C
e|--------2------------------------------------------------------------|
B|------3---3-------3-------1---------0--------------------0-----------|
G|----2-------2---2-------0---------0---0----------0-------------------|
D|--0-----------0-----------------0-------0--------------0-------------|
A|----------------------3------------------------2---------------------|
E|------------------------------3--------------3-------3---------------|

After the intro it just goes into strumming wich is the same throughout
the whole song. Listen to the song to get the rythm. Thats pretty much it.

Chords: D/C/G
Tap to rate this tab
# A B C D E F G H I J K L M N O P Q R S T U V W X Y Z