Guitaretab - guitar tabs
Song name
# A B C D E F G H I J K L M N O P Q R S T U V W X Y Z

Mott The Hoople - Surfin Uk tab

Highlighted       Show chord diagrams
-------------------------------------------------------------------------------
			     Surfin' Uk - Mott The Hoople
-------------------------------------------------------------------------------
Tabbed by: Me, As Usual.

Email:Yes.

By: Mick Ralphs.

Album: Two Miles From Heaven.  Nr.13

Awesomeness: Extremely High.

Intro:

Electric guitar comes in after two times.
|---------------------------|
|---------------------------|
|---------------------------|
|---------------------------|
|-------3-----------3h5-3-0-|
|-0-3-5---5---0-3-5---------|


A                           A
The way that you move makes me think 
               G                            D
that you're a dead-bringer for a Rock 'n Roll singer.
A                A
And the way that you dance 
          A    
makes me wanna create 
G                           D
some kind of scene in your life.
E5  
Know that you could have some kind of fun with me, 
G            D
anyway give it a try.
A                               A
Cause you're a fun loving girl, yes you are. 
E                      E
I'm just a fun loving guy.
[ Tab from: http://www.guitaretab.com/m/mott-the-hoople/65349.html ]
|---------------------------|
|---------------------------|
|---------------------------|
|---------------------------|
|-------3-----------3h5-3-0-|
|-0-3-5---5---0-3-5---------|x2


Well I seen you before just hanging around me 
trying to pretend that...?
I can be naughty and I can be nice. 
Who can predict girls in the game
Know that you could have some kind of fun with me, 
anyway give it a try.
Cause you're a fun loving girl, yes you are. 
I'm just a fun loving guy.

D A G    D A Em

|---------------------------|
|---------------------------|
|---------------------------|
|---------------------------|
|-------3-----------3h5-3-0-|
|-0-3-5---5---0-3-5---------|x2

Well don't look so nervous Since I closed the door shut, 
you wouldn't want anyone else to get in.
A black leather belt hangs on the wall, 
should be warning enough not to try to get in.
Know that you could have some kind of fun with me, 
anyway give it a try.
Cause you're a fun loving girl, yes you are. 
I'm just a fun loving guy.

|---------------------------|
|---------------------------|
|---------------------------|
|---------------------------|
|-------3-----------3h5-3-0-|
|-0-3-5---5---0-3-5---------|

Fade out.
Related for Surfin Uk tab
Advertisement will be closed in 10 seconds