Song name
# A B C D E F G H I J K L M N O P Q R S T U V W X Y Z

Mott The Hoople - Mommas Little Jewel tab

-------------------------------------------------------------------------------
			     Momma's Little Jewel - Mott The Hoople
-------------------------------------------------------------------------------
Tabbed by: Me...

Email: Yes.

Tuning: Yes.

e|---------------------------------------------|
B|---------------------------------------------|
G|--------------5-5----------------------------|
D|-------------------7-5-----------------------|
A|----7-5-7-5-7--------------------------------|
E|--5------------------------------------------|

This is mainly what the guitar do in this song(Cept' Solo).The piano owns the
verse etc. No, I don't have the solo.
Tap to rate this tab
# A B C D E F G H I J K L M N O P Q R S T U V W X Y Z