Song name
# A B C D E F G H I J K L M N O P Q R S T U V W X Y Z

Motto To Love Ru Opening - Loop The Loop tab

 Page 1: Motto To Love Ru Opening Song - Loop the Loop        Palm mute-•
                                                              Slide up-/
Tuning: Standard (EADGBe)                                     Harmonics-*

Intro: Repeat a couple of times
e|--------------------------------------------------------------------------|
B|--------------------------------------------------------------------------|
G|--------------------------------------------------------------------------|
D|-2-2-2--666-77---2-2-2—666-77--2-2-2--666-77--2-2-2---777-55--------------|
A|-2-2-2-----------2-2-2---------2-2-2----------2-2-2-----------------------|
E|-0-0-0-----------0-0-0---------0-0-0----------0-0-0-----------------------|

Little verse thing Part 1 Harmonic parts have delays
e|----0-----------------0---------------------------------------------------|
B|----0---*12-----------0----*12--------------------------------------------|
G|----1-----------------1------*12------------------------------------------|
D|-2-----------------2------------------------------------------------------|
A|-2-----------------2------------------------------------------------------|
E|-0-----------------0------------------------------------------------------|

Little verse thing Part 2
e|--------------------------------------------------------------------------|
B|--------------------------------------------------------------------------|repeat
G|---------------------2-2--2--2-2--2---------------------------------------|this
D|-6-6-6---4x-then-----2-2--2--2-2--2--4-x-4~-------------------------------|2x
A|-4-4-4---------------0-0--0--0-0--0--2-x-2~-------------------------------|
E|--------------------------------------------------------------------------|
   • •                • •     • •
Pre-chorus
e|---------------------------------------------------------------------------|
B|---------------------------------------------------------------------------|
G|---------------------------------------------------------------------------|
D|---------------------------------------------------------------------------|
A|-6--7—-9~------6--7—-9~------9-9-9-9---------------------------------------|
E|-4--5—-7~------4--5—-7~------7-7-7-7---------------------------------------|
                              • • • •


Chorus

Strum this part
e|---------------------------------------------------------------------|
B|---------------------------------------------------------------------|Repeat
G|-----------------------2---------------------------------------------|chorus
D|-2-----4---6---4---5---2---4-----------------------------------------|
A|-2-----2---4---2---3---0---2-----------------------------------------|
E|-0-------------------------------------------------------------------|

Post-chorus    Fast Part – (|--|)
e|--------------------------------------------------------------------------|
B|--------------------------------------------------------------------------|
G|-----------2----------------2-2--2-2--2-2--2-2----------------------------|
D|-2--4-4/5--2---9-9-9-6------2-2--2-2--2-2--2-2----------------------------|
A|-2--2-2/3--0---7-6-5-4------0-0--0-0--0-0--0-0----------------------------|
E|-0------------------------------------------------------------------------|
                    |--|     • •  • •  • •  • •

Then Repeat
Intro once, then
Verse part 1 and 2
Pre-chorus
Chorus
Bridge

Page 2:
Bridge
Well, this is all I got
e|--------------------------------------------------------------------------|
B|--------------------------------------------------------------------------|
G|--------------------------------------------------------------------------|
D|--2-2-2---Repeat-coulpe-of-times-and-listen-to-song-----------------------|
A|--2-2-2---------------------for-strumming-pattern-------------------------|
E|--0-0-0-------------------------------------------------------------------|
    • • •

Instrumental Part: Just strum away

This is all I can hear… well I did it by ear…
e|--------------------------------------------------------------------------|
B|--------------------------------------------------------------------------|
G|--------------------------------------------------------------------------|
D|-2---repeat-a-couple-of-times-------------------------4-------strum-------|
A|-2---------------------then-play-this-----------------2---------that------|
E|-0---------------------------------with-strumming-------------------one---|

Then repeat
Pre-chorus
Chorus: listen to song for strumming on this part
Post-chorus
Then intro

Play this on the last part… listen to it… you know, the song
e|--------------------------------------------------------------------------|
B|--------------------------------------------------------------------------|
G|--------------------------------------------------------------------------|
D|-2-2-2~-------------------------------------------------------------------|
A|-2-2-2~-------------------------------------------------------------------|
E|-0-0-0~-------------------------------------------------------------------|
   • •
Song structure:
Intro
Verse 1 & 2
Pre-chorus
Chours
Post chorus And
Intro, play vibrato per chord… and listen to the song
Verse 1 & 2
Pre-chorus
Post chorus then
Page 3:
Bridge and
Instrumental Part
Pre-chorus
Chorus
Post-chorus
Intro then last part


Song Lyrics:
Verse 1:

Fukigen na tenkimoyou ga noriutsuttetag AITSU
Nanda! chotto NANAME ni sora wo miteta dake ka

Shiritai (Misetai)
Wakaritai (Wakaranai)
Nakitai (Nakenai)

Soredemo

Shikatanai (Hekomanai)
Itakunai (Kayuku mo nai)
Kowashitai (Kowaretai)
Yuzurenai omoi nara

Pre-chorus 1:

Chiratsuku kiiro shingou mushi shite

Page 4:
Chorus 1:

Koukakudo de joushouchuu kokoro no Flying Saucer (Flying Saucer)
Naka naka sunao ni nannai himitsu no TOBIRA ni keriirete!

Chuugaeri de mata modotte kuru yo
Sakaraenai (Sakaraenai) jiryoku mitai na omoi yo todoke!

Post-chorus:

Omote no KAADO de shoubu shinai nante
Dare no tame no MORARU?

Verse 2:

Tameratte ippo okureta KAKKO warui TAIMING
Ii sa! henteko kao mo ORIJINARU no miryoku

Kimetai (Misetai)
Ikitai (Tomaranai)
Tsukamitai (Tsukamenai)

Naka naka

Mitsukaranai (Kore de mo nai)
Sagashitai (GOORU wa nai)
Tobashitai (Tobikoetai)
Kurabete hekomu nara

{age 5:
Pre-chorus:

Imasugu monosashi nante sutechae!

Chorus 2:

Koumitsudo de juutenchuu kokoro no Maser Bomber (Maser Bomber)
FURA FURA tanin makase karimono no chizu wa yaburisute

Chuukoku wa mushiro hanmenkyoushi
Sakarattatte (Sakarattatte) jibun shidai no sora wa hiraku

Bridge:

Tomo sureba ijiwaru aku na kami-sama no omou TSUBO
Oyayubi tate ue muite hoshi no kanata e tondekou!

(Instrumental)

Pre-chorus:

Jiyuu nante kotoba wa katachi no nai PASSUPORT

Chorus 3:

Koukakudo de joushouchuu kokoro no Flying Saucer (Flying Saucer)
Naka naka sunao ni nannai himitsu no TOBIRA ni keriirete!

Chuugaeri de mata modotte kuru yo
Page 6:
Sakaraenai (Sakaraenai) jiryoku mitai na omoi yo todoke!

Outro:

Dareka no RUURU de shoubu ga owattatte
Bokura wa tomarenai


Loop......Loop.....
Tap to rate this tab
 
# A B C D E F G H I J K L M N O P Q R S T U V W X Y Z