Song name
# A B C D E F G H I J K L M N O P Q R S T U V W X Y Z

Mount Eerie - I Know No One tab

-------------------------------------------------------------------------------
                             I Know No One - Mount Eerie
-------------------------------------------------------------------------------
Tabbed by: nicholas klose
E-mail: nicholasjklose@gmail.com

Tuning:EADGBe

this is one of my favorites by phil, Ill show you the chords and the guitar riff that 
follows. Not sure if its completely right but it seems to sound very similar.

e|---------------------------------------|
B|---------------------------------------|
G|----2------------------2-----0---------|
D|----2------------------2-----2-----0---|
A|---0-----0-----2------0-----3------2---|
E|--------1-----3-------------------3----|

repeat a few times and then after the first verse


e|----------------------------------------------------------------------|
B|----------------------------------------------------------------------|
G|------------------------0--2-------0----------------------------------|
D|----5/2---0--------0--2----0----------2-------------------------------|
A|--0-------0---0--3----3-------0--2----3---2---------------------------|
E|----------1----------------------3--------3---------------------------|

repeat. I know im missing something. but heres what ive figured out.

|* /   slide up

heres the lyrics

Knowing no one will understand these songs,
I try to sing them clearer
and
even though no one has ever asked
"What does Mount Eerie mean?"
I try repeatedly to explain
in complicated song,
but tonight we will find out
I know no one
and
No One knows me
Tap to rate this tab
# A B C D E F G H I J K L M N O P Q R S T U V W X Y Z