Song name
# A B C D E F G H I J K L M N O P Q R S T U V W X Y Z

Mount Kimbie - Before I Move Off tab

-------------------------------------------------------------------------------
			      Before I Move Off - Mount Kimbie
-------------------------------------------------------------------------------
Tabbed by: kylehlogan
Email: kylehlogan@gmail.com
http://www.mountkimbie.com/

Tuning: Standard tuning (eadgbe)

Miscellaneous guitar noises play once and keep repeating, these are samples that Mount
Kimbie play from either their laptop + NI Maschine or their Roland 555.

On the second repetition, this guitar line begins to fade in. Play this four times for
each one of the initial loops to play.

e|---------------------------------------------------------------------------|
B|---------------------------------------------------------------------------|
G|---11-11-9-6---------------------------------------------------------------|
D|---------------------------------------------------------------------------|
A|---------------------------------------------------------------------------|
E|---------------------------------------------------------------------------|

Occasionally this is played instead.

e|---------------------------------------------------------------------------|
B|---------------------------------------------------------------------------|
G|---11-11-9-6-9-------------------------------------------------------------|
D|---------------------------------------------------------------------------|
A|---------------------------------------------------------------------------|
E|---------------------------------------------------------------------------|

After a few more loops, this overlaps the original guitar line.
Mount Kimbie loop the initial guitar line with a Line 6 DL4, this second line is 
played sporadically.

e|---------------------------------------------------------------------------|
B|---------------------------------------------------------------------------|
G|---------------------------------------------------------------------------|
D|---11-11-9-6---------------------------------------------------------------|
A|---------------------------------------------------------------------------|
E|---------------------------------------------------------------------------|

Occasionally this is played instead.

e|---------------------------------------------------------------------------|
B|---------------------------------------------------------------------------|
G|---------------------------------------------------------------------------|
D|---11-11-9-6-9-------------------------------------------------------------|
A|---------------------------------------------------------------------------|
E|---------------------------------------------------------------------------|

After a few more loops, this is played faintly in the background. This may just
be a sampled loop from the Native Instruments Maschine or Roland SP555.

e|---------------------------------------------------------------------------|
B|---------------------------------------------------------------------------|
G|---------------------------------------------------------------------------|
D|-----7---------------------------------------------------------------------|
A|---7---7-------------------------------------------------------------------|
E|-5-------2/9-7-------------------------------------------------------------|

The original guitar loop stops and this is played,

e|---------------------------------------------------------------------------|
B|---------------------------------------------------------------------------|
G|---------------------------------------------------------------------------|
D|---11-11-9-6-11-11-9-6-11-11-9-6-11-11-------------------------------------|
A|---------------------------------------------------------------------------|
E|---------------------------------------------------------------------------|

At the end of the song, this is played.
e|---------------------------------------------------------------------------|
B|---------------------------------------------------------------------------|
G|---------------------------------------------------------------------------|
D|-----7-----4----11----11-------9-------------------------------------------|
A|---7---7-----------11-------9-----9----------------------------------------|
E|-5-------2----9-----------7------------------------------------------------|

Vary this by occasionally missing out notes on the A and D strings.



************************************

| /   slide up
| \   slide down
| h   hammer-on
| p   pull-off
| ~   vibrato
| +   harmonic
| x   Mute note
| b   Bend
| pb  Pre-bend
| br  Bend release
| pbr Pre-bend release
| brb Bend release bend

************************************
Tap to rate this tab
# A B C D E F G H I J K L M N O P Q R S T U V W X Y Z