Song name
# A B C D E F G H I J K L M N O P Q R S T U V W X Y Z

Mount Kimbie - So Many Times So Many Ways tab

Guitar 1:

Part 1:

E|-----------------------------------------------------------------------------|
B|-----------------------------------------------------------------------------|
G|-----------------------------------------------------------------------------|
D|-----------------------------------------------------------------------------|
A|-----------------------------------------------------------------------------|
E|--0--3--3--3--3--3--3--3--0--3--0--3--3--5--5--5--5--5--5--5--5--5--5--5--5--|

E|----------------------------------------------------------------------------|
B|----------------------------------------------------------------------------|
G|----------------------------------------------------------------------------|
D|----------------------------------------------------------------------------|
A|----------------------5--5--5--7--7--7--------------------------------------|
E|--5/7--7--7--7--7--7--------------------5--5--5--5--5--5--5--5--5--5--5--5--|

Part 2:

E|------------------------------------------|
B|------------------------------------------|
G|------------------------------------------|
D|------------------------------------------|
A|--9--7--5---------------------------------|
E|-----------7--5--3--3/5--3--3--3/5--3--3--|

E|----------------------------------------|
B|----------------------------------------|
G|----------------------------------------|
D|----------------------------------------|
A|--9--7--5----------------------5--2--2--|
E|-----------7--5--3--3/5--3--3-----------|

E|------------------------------------------|
B|------------------------------------------|
G|------------------------------------------|
D|------------------------------------------|
A|--9--7--7--9--7--7------------------------|
E|--------------------5/7--5--5--5/7--5--5--|

Guitar 2:

E|--------------------------|
B|--------------------------|
G|--------------------------|
D|--9--7--------------------|
A|----------9--7--7----5h7--|
E|--------------------------|
Tap to rate this tab
# A B C D E F G H I J K L M N O P Q R S T U V W X Y Z