Guitaretab - guitar tabs
Song name
# A B C D E F G H I J K L M N O P Q R S T U V W X Y Z

Mountain Goats - The Black Ice Cream Song tab

OK I looked around the internets for a tab but for w/e reason there doesn't seem to be 
 Well I found one and it was most assuredly wrong because it didn't have that D minorish 
chord anywhere in it.  I don't really know what it is I suck at theory and don't even try.

where i put the chords just listen for how many times he strums it.  like the first 
listed is a C just listen for the rhythm.

k i played it a few times and it sounds right but i make no guarantees.  :P


   G                        C                           G          (repeats)


---3-----5---3---5---3------0-----3---2---3---2---0-----3------------|
---0------------------------1---------------------------0------------|
---0------------------------0---------------------------0------------|
---0------------------------2---------------------------0------------|
---2------------------------3---------------------------2------------|
---3----------------------------------------------------3------------|

The heat came dooooowwwwnnnnnn...


    G               C            (It's just those 2 chords repeating)

[ Tab from: http://www.guitaretab.com/m/mountain-goats/100258.html ]
----3---------------0------------------------------------------------|
----0---------------1------------------------------------------------|
----0---------------0------------------------------------------------|
----0---------------2------------------------------------------------|
----2---------------3------------------------------------------------|
----3----------------------------------------------------------------|


(About 30 seconds in is the only other change in the song and it's that D minorish 
chord.)


...and I knew I living in a long lost (or long long) dream...
                     ...when you fed me the black ice cream...


     Dm7#?!             C               G


------2-----------------0---------------3-----------------------------|
------1-----------------1---------------0-----------------------------|
------2-----------------0---------------0-----------------------------|
------0-----------------2---------------0-----------------------------|
------------------------3---------------2-----------------------------|
----------------------------------------3-----------------------------|


Ta da!  That's it.

I love this song.  It's so simple and perfect and it's a great song to learn and sing to.

-laughing blood
rapetown@gmail.com
Related for The Black Ice Cream Song tab
Advertisement will be closed in 10 seconds