Guitaretab - guitar tabs
Song name
# A B C D E F G H I J K L M N O P Q R S T U V W X Y Z

Mountain Goats - Heretic Pride tab

Intro
   A
E|-----------------------------------|
B|-2--------2--------2--------2------|
G|----2--------2--------2--------4-2-|
D|------2--------2--------2----------|
A|-----------------------------------|
E|-----------------------------------|

   D
E|-2--------2------------------------|
B|----2--------2---------------------|
G|------2------------2---------------|
D|-----------------------------------|
A|-----------------------------------|
E|-----------------------------------|

                                   A
Well they come and pull me from my house
                                  D
And they drag my body through the streets
                                  E              D
And the sunís so hot I think Iíll catch fire and burn up
                               A
in the summer air so moist and sweet

                               A
And the people all come out to cheer
                              D
Rocks in the pathway break my skin
                               E            D
And thereís honeysuckle on the faint breeze today
                              A
With every breath Iím drawing in
[ Tab from: http://www.guitaretab.com/m/mountain-goats/114353.html ]
          F#m                 D
I want to cry out but I donít scream and I donít shout
           A              D
And I feel so proud to be alive
           A  E                 D
And I feel so proud to when the reckoning arrives


Riff 2x
   A
E|-----------------------------------|
B|-2--------2--------2--------2------|
G|----2-----(4)2--------2-----(4)2---|
D|------2--------2--------2--------2-|
A|-----------------------------------|
E|-----------------------------------|
   D
E|-2--------2--------2---------------|
B|----2--------2--------2-----2------|
G|------2--------2--------2------4-2-|
D|-----------------------------------|
A|-----------------------------------|
E|-----------------------------------|

                          A
Crowds grow denser by the second
                             D
As we near the center of the town
                                   E                 D
And they dig a trench right in the main square right there
                                 A
And they pick me up and throw me down

                            A
And I start laughing like a child
                              D
And I mark their faces one by one
                       E              D
Transfigurations gonna come for me at last
                                A
And I will burn hotter than the sun

         F#m                     D
I waited so long and now I taste jasmine on my tongue
           A              D
And I feel so proud to be alive
           A  E              D
And I feel so proud when the reckoning arrives

Riff 4x

end on A
Related for Heretic Pride tab