Song name
# A B C D E F G H I J K L M N O P Q R S T U V W X Y Z

Mountain Goats - Genesis 303 tab

The Mountain Goats - Genesis 30:3

By Daniel Coy

Figured this out earlier today.
As this is my first time tabbing anything properly (a piano song, no less), please feel 
to post improvements.
This really is a beautiful song. Enjoy.

Opening:

e|---------------|
B|---------------|
G|--5-----8--6---|
D|--6--10-6--8---| x2
A|--6--8--4--6---|
E|--4--6---------|

1st verse ("for several days the visitors were here..."):

e|----------------------------|
B|-------------------------8--|
G|--5-----8--6----5-----8--8--|
D|--6--10-6--8----6--10-6--8--|
A|--6--8--4--6----6--8--4--6--|
E|--4--6----------4--6--------|

Bridge:

e|--------------|
B|-----------6--|
G|--5--3-----6--|
D|--6--4--3--6--| x2
A|--6--4--3--4--|
E|--4--2--1-----|

The 2nd verse ("I remember seeing you...") is the same as the first , except there is 
variation where the 4th chord:

e|-----
B|-----
G|--6--
D|--8--  is replaced by:
A|--6--
E|-----

e|-----
B|--8--
G|--8--
D|--8--
A|--6--
E|-----

Chorus ("open up..."):

e|---------------------------|
B|-----3--6--8------------6--|
G|-----3--6--8---5--5-----6--|
D|--3--3--6--8---6--6--3--6--|
A|--3--1--4--6---6-----3--4--|
E|--1------------4-----1-----|

The 3rd Verse ("I saw his little face...") is EXCACTLY the same as the 1st verse.

The 4th and final verse ("For several hours we lay there...") is like this:

e|---------------------------|
B|-----------8------------8--|
G|--5--7--8--8---5--------8--|
D|--6--8--6--8---6--10-6--8--|
A|--6--8--4--6---6--8--4--6--|
E|--4--6---------4--6--------|


----
ORDER:
Opening
Verse 1
Bridge
Verse 2
Chorus
Bridge
Verse 3
Bridge
Verse 4
Chorus
Bridge
Tap to rate this tab
# A B C D E F G H I J K L M N O P Q R S T U V W X Y Z