Song name
# A B C D E F G H I J K L M N O P Q R S T U V W X Y Z

Mountain Goats - Magpie tab

the interlude of Magpie, by the Mountain Goats
for chorus and bridge chords I suggest Melonhead2s tab.

-----------------|-------------------|----------------------|
-----------15-17-|-15--15--15--------|----------------------|
---------16------|-------16--16-14---|----------------------|
---14--14--------|----------------14-|-14-16-17-16-14-16-14-|
-----------------|-------------------|----------------------|
-----------------|-------------------|----------------------|
   1(2)+ 3 +  4    1   2 + 3 +  4 +  (1)+ 2  +  3  +  4  +

----------------------------|---------------------------|
----------------------------|---------------------------|
----------------------------|---------------------------|
----------------------------|---------------------------|
----------------------------|---------------------14-17-|
-12-12-12----12-14-15-14-12-|-12-12-12----12-14-15------|
1(triplet)(2)+  3  +  4  +   1(triplet)(2)+  3  + 4  +

---------------------|-------------|---------------|
---------------------|-------------|---------------|
---------------------|-----12------|---12--12------|
------------14-17-14-|-12------14--|-12--14----14--|
----17-14-17---------|-------------|---------------|
---------------------|-------------|---------------|
(1) +  2  + 3  +  4    1(2)+(3)+(4)  1 + 2 +(3)+(4)


I think that the second guitar part is playing the same chords as the first in the 
and bridge, just an octave higher.
Tap to rate this tab
# A B C D E F G H I J K L M N O P Q R S T U V W X Y Z