Song name
# A B C D E F G H I J K L M N O P Q R S T U V W X Y Z

Mountain Goats - Hebrews 11 40 tab

Intro
e-----0----00----0----00-|----0----00----00----00|
B-----0----00----0----00-|----0----00----00----00|
G-----1----44----0----00-|----1----44----00----00|
D-----2----44----4----77-|----2----44----44----77|
A-----2----22----4----77-|----2----22----44----77|
E-----0----00----2----55-|----0----00----22----55|

Verse

e-----0----00----0----00-|----0----00----00----00|
B-----0----00----0----00-|----0----00----00----00|
G-----1----44----0----00-|----1----44----00----00| x2
D-----2----44----4----77-|----2----44----44----77|
A-----2----22----4----77-|----2----22----44----77|
E-----0----00----2----55-|----0----00----22----55|
Tap to rate this tab
 
# A B C D E F G H I J K L M N O P Q R S T U V W X Y Z