Song name
# A B C D E F G H I J K L M N O P Q R S T U V W X Y Z

Mountain Goats - Roger Patterson Van tab

The Mountain Goats with Kaki King - Roger Patterson Van 
Played in open C (CGCGCE)

|---------------------------------------------1p0--|
|---------------------0----------------------0-----|
|-----------0-2-2-0h2--2------------0-2-2--2----2--|
|---4-4-4-4---2-2--------0-4-4-4-4---2-2-2------2--|
|---5-5-5-5----------------5-5-5-5-----------------|
|-0------------------------------------------------|

|------------------------------------------x-x-x-x-|
|-----------------------0------------------x-x-x-x-|
|-------------0-2-2-0h2--2-----------0-2-2-x-x-x-x-|
|---4-4-4-4---2-2----------0-4-4-4-4---2-2-x-x-x-x-|
|---5-5-5-5------------------5-5-5-5-------x-x-x-x-|
|-0----------------------------------------x-x-x-x-|

|-----------------------------|
|-----------------------------|
|-12-12-12-12-14-14/12/14/16--|
|-12-12-12-12-14-14/12/14/16--|
|-----------------------------|
|-----------------------------|

|----------------------------------|
|-------------------------16/14/12-|
|-12-12-12-12-14-14----14----------|
|-12-12-12-12-14-14-14-------------|
|----------------------------------|
|----------------------------------|

Tap to rate this tab
 
# A B C D E F G H I J K L M N O P Q R S T U V W X Y Z