Song name
# A B C D E F G H I J K L M N O P Q R S T U V W X Y Z

Mountain Goats - Up The Wolves tab

Highlighted       Show chord diagrams
----------------------------------------------------------------------------
			     UP THE WOLVES - Mountain Goats
----------------------------------------------------------------------------

Tabbed by: lostpanda
Email: kylelostpanda@yahoo.com

Tuning: standard

Chords used:
    D   G   G2  A   A2  Em
e|--------------------------------------------------------------------------
B|--3---0---3---2---3---3---------------------------------------------------
G|--2---0---0---2---2---0---------------------------------------------------
D|--0---0---0---2---2---X---------------------------------------------------
A|--0---2---2---0---0---2---------------------------------------------------
E|------3---3-----------0---------------------------------------------------


D  G A  (2x)
D

D                                               G2     A
There's bound to be a ghost at the back of your closet
G2 A                D
No matter where you live
         D                               Em
There'll always be a few things, maybe several things
            G2                A               D
That you're gonna find really difficult to forgive

D  G A G A D

D                                         G2     A
There's gonna come a day when you'll feel better
       G2               A            D
You'll rise up free and easy on that day
    D                            Em
And float from branch to branch, lighter than the air
     G2                               A2           A
Just when that day is coming, who can say, who can say
    D               G2
Our mother has been absent
     D                G2
Ever since we founded Rome
            D          A                         D
But there's gonna be a party when the wolf comes home


D  G A G A D

D                                G2       A
We're gonna commandeer the local airwaves
   G2                 A                    D
To tell the neighbors what's been going on
    D                                Em
And they will shake their heads, and wag their bony fingers
   G2                              A2                A
In all the wrong directions and by daybreak we'll be gone


D  G A G A D

    D                            G2    A
I'm gonna get myself in fighting trim
G2              A                 D 
Scope out every angle of unfair advantage
D                              Em
I'm gonna bribe the officials, I'm gonna kill all the judges
G2                                    A2                    A
It's gonna take you people years to recover from all of the damage
    D               G2
Our mother has been absent
     D                G2
Ever since we founded Rome
            D          A                         D
But there's gonna be a party when the wolf comes home
   G2 A D  G2 A D  G2 A D
Oh
Tap to rate this tab
# A B C D E F G H I J K L M N O P Q R S T U V W X Y Z