Song name
# A B C D E F G H I J K L M N O P Q R S T U V W X Y Z

Mountain Goats - This Year tab

This Year
The Mountain Goats
Tabbed by: Stefan Reed

Not the exact way to play it, but still sounds good.

Intro/Verse/Chorus

  A      C#m              D       A                 
|-5-5-x---4-4-4-4-4-4-4-4-5-5-x---5-5-5-5-5-5-5-5-|
|-5-5-x---5-5-5-5-5-5-5-5-5-5-x---5-5-5-5-5-5-5-5-|
|-6-6-x---6-6-6-6-6-6-6-6-7-7-x---6-6-6-6-6-6-6-6-|
|-7-7-x---6-6-6-6-6-6-6-6-7-7-x---7-7-7-7-7-7-7-7-|
|-7-7-x---4-4-4-4-4-4-4-4-5-5-x-4-7-7-7-7-7-7-7-7-|
|-5-5-x-7---------------------x---5-5-5-5-5-5-5-5-|

  A       E               D       A            
|-0-0-x---0-0-0-0-0-0-0-0-0-0-x---0-0-0-0-0-0-0-0-|
|-2-2-x---0-0-0-0-0-0-0-0-2-2-x---2-2-2-2-2-2-2-2-|
|-2-2-x---1-1-1-1-1-1-1-1-3-3-x---2-2-2-2-2-2-2-2-|
|-2-2-x---2-2-2-2-2-2-2-2-2-2-x---2-2-2-2-2-2-2-2-|
|-0-0-x-2-2-2-2-2-2-2-2-2-0-0-x-4-0-0-0-0-0-0-0-0-|
|-----x---0-0-0-0-0-0-0-0-----x-------------------|

Bridge

 F#m      A
|-2-2-2-2-0-0-0-0-|
|-2-2-2-2-2-2-2-2-|
|-2-2-2-2-2-2-2-2-|
|-4-4-4-4-2-2-2-2-|
|-4-4-4-4-0-0-0-0-|
|-2-2-2-2---------| repeat three times

then

  D       E
|-0-0-0-0-0-0-0-0-|
|-2-2-2-2-0-0-0-0-|
|-3-3-3-3-1-1-1-1-|
|-2-2-2-2-2-2-2-2-|
|-0-0-0-0-2-2-2-2-|
|---------0-0-0-0-|

Intro
Verse
Chorus
Verse
Chorus
Bridge
Verse
Chorus
Tap to rate this tab
# A B C D E F G H I J K L M N O P Q R S T U V W X Y Z