Song name
# A B C D E F G H I J K L M N O P Q R S T U V W X Y Z

Mountain Men - Egotistical tab

EGOTISTICAL
MOUNTAIN MEN
HOPE (2012)

------------------------------------------------------------
Mountain Men est un groupe franco-australien extraordinaire.
Mr Mat : Guitare et chant
Barefoot Iano : Harmonica

http://mountain-men.fr/
https://www.facebook.com/mountain.men.officiel
----------------------------------------------

// CAPO V \\

Accords utilisés (noms approximatifs) :
Chords used (approximate names) :

                                  2   3   4       3   4   5
|---|---|---|   |---|---|---|   |---|---|---|   |---|---|---|
|---|---|-3-|   |---|---|---|   |---|---|---|   |---|---|---|
|---|-2-|---|   |---|---|---|   |---|---|-4-|   |---|---|-4-|
|---|---|---|   |---|-3-|---|   |---|---|-3-|   |---|---|-3-|
|---|---|---|   |---|-2-|---|   |-1-|---|---|   |-1-|---|---|
|---|-1-|---|   |---|---|---|   |-1-|---|---|   |-1-|---|---|
    Dadd9            Em               B5   (+ 1c.)    C5

  3   4   5       5   6   7       8   9   10
|---|---|---|   |---|---|---|   |---|---|---|   |---|---|---|
|---|---|---|   |---|---|---|   |---|---|---|   |-1-|---|---|
|---|---|---|   |---|---|---|   |---|---|-4-|   |---|---|---|
|---|---|-4-|   |---|---|-4-|   |---|---|-3-|   |---|-2-|---|
|---|---|-3-|   |---|---|-3-|   |-1-|---|---|   |---|---|-3-|
|-1-|---|---|   |-1-|---|---|   |---|-2-|---|   |---|---|---|
     G5    (+ 2c.)    A5            Emadd9            C

|---|---|-4-|
|---|---|-3-|
|---|---|---|
|---|---|---|
|---|-1-|---|
|---|---|-2-|
      G

--------------
INTRODUCTION :

Dadd9 / Em   X2


|---0-----2-----0-3-----0-2-----0--------0---2-----0-3-----0-2-----0---|
|-0-|---0-|---0---|---0---|-0h1---1-0h1----1-|---1---|---1---|-0h1---1-|
|-|-|-----|-------|-------|---------|--------|-------|-------|---------|
|-|-2-----|-2-----|-2-----|---------|--------|-0-----|-2-----|---------|
|-2---2---2-------2-------2---------3--------3-------0-------2---------|
|----------------------------------------------------------------------|

|-----0-----2------0-3-----0-2-----0-------0---2-----0-3-----0-2-----0---|
|-0-------0-|----0---|---0---|-0h1---1-0h1---1-|---1---|---1---|-0h1---1-|
|-|---------|--------|-------|---------|-------|-------|-------|---------|
|-|-2---2---|-2------|-2-----|---------|-------|-0-----|-2-----|---------|
|-2---------2--------2-------2---------3-------3-------0-------2---------|
|------------------------------------------------------------------------|


-----------------
COUPLET / VERSE :

|---------------------------------------------------------0---2-----2-|
|-----------0-3-1-0-----------0-3-1-0-----------0-3-1-1-----1-|---0---|
|-----------|-|-|-|-----------|-|-|-|-----------|-|-|-|-------|-------| X2
|-2-2-2-2-2-2-2-2-2-2-2-2-2-2-2-2-2-2-2-2-2-2-2-2-2-2-2-------|-2-----|
|-2-2-2-2-2-2-2-2-2-2-2-2-2-2-2-2-2-3-3-3-3-3-3-3-3-3-3-3-----3-------|
|-0-0-0-0-0-0-0-0-0-0-0-0-0-0-0-0-0-0-0-0-0-0-0-0-0-0-0---------------|


------------------
REFRAIN / CHORUS :

|-----0-------0-------0-------0---|
|---0---0---0---0---0---0---1---1-|
|-4-------------------------------|
|---------------------------------|
|-2-------0-------2-------3-------|
|---------------------------------|


Em / B5 / C5 / G5 / A5
Em / B5 / C5 / A5 / B5

Rythmique / Rhythm :
M MV VMVM M MV VMV x


---------------
PONT / BRIDGE :

|-------8----------8----------10----------10----|
|-10------10-10------10-12-------12-12-------12-|
|-|----------|----------|-----------|-----------| X4
|-|--10------|--10------|--12-------|--12-------|
|-8----------9----------10----------11----------|
|-----------------------------------------------|


Em / C / G / B5
Emadd9 / A5 / C5 / B5

Em / C / G / B5    X2

Rythmique / Rhythm :
MM MVMVM MV VMV x


N'hésitez pas à écouter le morceau (ou allez les voir en concert, c'est la meilleure 
option !) pour avoir une idée du rythme et pour vous caler dessus.
A vous de jouer !
Tap to rate this tab
 
# A B C D E F G H I J K L M N O P Q R S T U V W X Y Z