Song name
# A B C D E F G H I J K L M N O P Q R S T U V W X Y Z

Mountain Men - I Make You Lose tab

I MAKE YOU LOSE
MOUNTAIN MEN
SPRING TIME COMING (2009)
-------------------------

Standard Tuning
// CAPO IV \\

------------
INTRODUCTION

|-----0----------------------------3-0-----0-----0-----|
|-0---------0h1-0-----0----0-0h1---1---1h3---0---0---0-|
|-0-------0-0---|---0----0---|-----2---------|---0-----|
|-2-2---2---|---|-0-----0----|--2--2---------|-2-2-2---|
|-2---------|---|------------0---------------|---------|
|-0---------0---3----------------------------0---------|

|-----0----------------------------3-0h3p0-----0----0---v0-|
|-0---------0h1-0-----0----0-0h1---1-------1h3---0--0---v0-|
|-0-------0-0---|---0----0---|-----2-------------0--0---v0-|
|-|-2---2---|---|-0-----0----|---2-2-------------4--4---v4-|
|-|---------|---|------------0-------------------2--2---v2-|
|-0---------0---3--------------------------------0--0---v0-|

|-----------------------------------------------------------------|
|---------------------------------0---------------0---------------|
|---------------------------------|---------------|---------------|
|---2---2---2---2---2---2---2---2-|-2---2---2---0-|-0---0---0---0-|
|---------------------------------|---------------|---------------|
|-0---0---0---0---0---0---0---0---0---0---0---0---3---3---3---3---|

|-------------------------------3b-0---------------------------------|
|-0---------------0---------0---|----0---------------0---------------|
|-|---------------|-------------|----|---------------|---------------|
|-|-2---2---2---2-|-2---2-----2-|----|-2---2---2---0-|-0---0---0---0-|
|-0---0---0---0---|-------------|----|---------------|---------------|
|-----------------0---0---0-----0----0---0---0---0---3---3---3---3---|

|-------------------0---------------|
|-0---------------0-----0---3-1-0---|
|-|---------------|---------|-|-|-0-|
|-|-2---2---2---2-|-------2-|-2-|-2-|
|-0---0---0---0---|---------|---|---|
|-----------------0---0-----0---0---|


RIFF A
|---0-------------------------------0---0-------3-2-0-----0---------------|
|---|---0---3-1-0-----0---0---3-1-0-|-1-|---1---|-|-|-1-0-|---0---3-1-0---|
|---|-------|-|-|-0---|-------|-|-|-|-|-|-------|-|-|-|-|-|-------|-|-|-0-| x2
|-2-2-----2-|-2-|-0---0-----0-|-0-|-0-|-2-----2-|-2-|-2-|-2-----2-|-2-|-2-|
|-|---------|---|-------------|---|---0---0-----0---0---|---------|---|---|
|-0---0-----0---0---3---3-----3---3---------------------0---0-----0---0---|


COUPLET / VERSE
|---4-----------4---------3-----------3-----------4---------|
|---|---3-------|---3-----|---2-------|---2-------|---3-----|
|-4-|-------4---|-------3-|-------3---|-------3-4-|-------4-|
|-|-2-----2-----2-----2-|-2-----2-----2-----2---|-2-----2---|
|-|---------------------|-----------------------|-----------|
|-0---0-------0---0-----0---0-------0---0-------0---0-------|

|----------------------------4-----------4---------3-----------|
|----------------------------|---3-------|---3-----|---2-------|
|----------------------(4)-4-|-------4---|-------3-|-------3---|
|---2---2---2---2---2---2--|-2-----2-----2-----2-|-2-----2-----|
|--------------------------|---------------------|-------------|
|-0---0---0---0---0---0----0---0-------0---0-----0---0-------0-|

|-3---------4---------------------------vx-|
|-|---2-----|---3-----------------------vx-|
|-|-------4-|-------4-------------------vx-|
|-2-----2-|-2-----2-----2---2---2---2---vx-|
|---------|---------------------------x-vx-|
|---0-----0---0-------0---0---0---0---0----|


RIFF B
|---------0-------3---0---------0-------3---0-------|
|-------2-|---2---|-------2---2-|---2---|-------0---|
|-------|-|-------|-----------|-|-------|-----------|
|-------|-2-----2-|-2-------2-|-2-----2-|-2-------0-|
|-------0---0-----0-----0-----1---1-----1-----1-----|
|-2-3-4---------------------------------------------|


|-------0-------------------------0---------|
|-----------3---2---0---0-------------2---3-|
|-0h1-----------|-----------0h1------------|
|-|---2-------2-|-2-------2-|---2-------2--|
|-|-------------|-----------|--------------|
|-0-------0-----0-----0-----0-------0-----0-|


RIFF B

RIFF A

COUPLET / VERSE

RIFF B


BREAK
|-vx-x-0--vx-0----|
|-vx-x-0--vx-0----|
|-vx-x-0--vx-0--4-|
|-vx-x-2--vx-2--2-|
|-vx-x-2--vx-2--2-|
|-vx-x-0--vx-0--4-|


RIFF B

RIFF A


 Em    E   Es4  F#m  B7  A  G  ? Em    E   Es4  F#m  B7  A  Em
|---------------------------3--3-------------------------------|
|----------------2--2-0--2--3--3-----------------2--2-0--2-----|
|-0--0-4--4-2--2-2--2-2--2--0--2--0--0-4--4-2--2-2--2-2--2---0-|
|-2--2-2--2-2--2-4--4-1--2--0--0--2--2-2--2-2--2-4--4-1--2---2-|
|-2--2-2--2-0--0-4--4-2--0--2--0--2--2-2--2-0--0-4--4-2--0---2-|
|-0--0-4--4-0--0------------3--2--0--0-4--4-0--0-------------0-|

|-----------0-----------0-----------0-------3b---0-------|
|---------------2---3-------0---2-------2---|--------2---|
|-----0h1-----------|-----------|-----------|------------|
|-----|---2-------2-|-2-------0-|-2-------2-|--2-------2-|
|-----|-------------|-----------0-----0-----0------0-----|
|-12\-0-------0-----0-----0------------------------------|

|-------0-----------0-------------0------------0-------|
|-----------0-----------0--------------0-----------0---|
|-0h1-----------2------------0h1-----------2-----------|
|-|---2-------2-|-1-------1--|---2-------2-|-1-------1-|
|-|-------------2-----2------|-------------2-----2-----|
|-0-------0------------------0-------0-----------------|

|-------0-----------------------------0-------3b---0-------|
|---------------------------------2-------2---|--------2---|
|-0h1---------2-------3-------4---|-----------|------------|
|-|---2---3/4---4_4/5---5_5/6---6-|-2-------2-|--2-------2-|
|-|-------|-------|-------|-------0-----0-----0------0-----|
|-0-------0-------0-------0--------------------------------|

|-------0-----------0-------------0------------0-------|
|-----------0-----------0--------------0-----------0---|
|-0h1-----------2------------0h1-----------2-----------|
|-|---2-------2-|-1-------1--|---2-------2-|-1-------1-|
|-|-------------2-----2------|-------------2-----2-----|
|-0-------0------------------0-------0-----------------|

 Em  A7  Em  B7  Em     B7
|-0---0---0--2--2-0---3-2-|
|-0---2---0--0--0-0---0-0-|
|-0---0---0--2--2-0---3-2-| } x3
|-2---2---2--1--1-2---2-1-|
|-2---0---2--2--2-2---3-2-|
|-0---0---0--0--0-0---0-0-|

|-0---0---0--2--2-0-0-0--2-2-2-|
|-0---2---0--0--0-0-0-0--0-0-0-|
|-0---0---0--2--2-0-0-0--2-2-2-|
|-2---2---2--1--1-2-2-2--1-1-1-|
|-2---0---2--2--2-2-2-2--2-2-2-|
|-0---0---0--0--0-0-0-0--0-0-0-|

|-----------------------------------------------------------------|
|-----------------------------------------------------------------|
|-----------------------------------------------------------------| } x2
|---2---2---2---0---0---0---0---0---2---2---2---0---2---2---2---2-|
|---------------------------------0---0---0---0-------------------|
|-0---0---0---0---3---3---3---3-------------------0---0---0---0---|

|-------------------------------------------------|
|-0---------------0---------------0---------------|
|-|---------------|---------------|---------------|
|-|-2---2---2---0-|-0---0---0---0-|-2---2---2---0-|
|-|---------------|---------------0---0---0---0---|
|-0---0---0---0---3---3---3---3-------------------|

|--------------------------------------------------------------------|
|-0-----------------0---0-----------------0---0-----------------0----|
|-|-------------0-------|-------------0-------|-------------0--------|
|-|-2---2---2---2-----2-|-2---2---2---2-----0-|-0---0---0---0------0-|
|-|---------------------|---------------------|----------------------|
|-0---0---0---0---0-----0---0---0---0---0-----3---3---3---3---3------|

|-----------------------------------------------|
|-0---------------0-----------------------------|
|-|--------(2)----|-------------------0--0-4--4-|
|-|-2---2---2---0-|-2---2---2---------2--2-2--2-|
|-0---0---0---0---|-------------------2--2-2--2-|
|-----------------0---0---0---0-2-3-4-0--0-4--4-|


RIFF B

BREAK

RIFF A


|---0---------------|                               |-0-|
|---|---0---3-1-0---|                               |-0-|
|---|-------|-|-|-0-| } x7  EN RALENTISSANT         |-0-|
|-2-2-----2-|-2-|-2-|        / SLOW DOWN            |-4-|
|-|---------|---|---|                               |-2-|
|-0---0-----0---0---|                 PUIS / THEN : |-0-|
Tap to rate this tab
 
# A B C D E F G H I J K L M N O P Q R S T U V W X Y Z