Song name
# A B C D E F G H I J K L M N O P Q R S T U V W X Y Z

Mountain Men - She Shines tab

SHE SHINES
MOUNTAIN MEN
SPRING TIME COMING
------------------
(Tabbed by Albane)
------------------

// CAPO IV \\

----------
SOLO INTRO
|-------------------0-------|
|---------------0-2-----0-3-|
|---------0h2/3-------3-----|
|-----0h1-------------------|
|-1h2-----------------------|
|---------------------------|


------------
RIFF A  } x2
|-----------------------------------------------------------------|
|-----3---3-3-----3---3-3---3---3-----3---3-3-----3---3-3---1---0-|
|-----0---0-0-----0---0-0---0---0-----2---2-2-----2---2-2---2---0-|
|---2-|-2-|-2---2-|-2-|-2---2---2---0-|-0-|-0---0-|-0-|-0---0---0-|
|-----|---|-------|---|---------------|---|-------|---|-----------|
|-0---0---0---0---0---0---0---0---2---2---2---2---2---2---2---2---|

|--------------------------0-------------3-------2---0--------------|
|-----3---3-3-----3---3-3------0-0h1-----|---1---|-------1-----3b-0-|
|-----0---0-0-----0---0-0--------|---2---|-------|-----------2-|----|
|---0-|-0-|-0---0-|-0-|-0----0---|-----2-|-------2---------2---|----|
|-----|---|-------|---|----------0-------|-0---0---0---0-------0----|
|-3---3---3---3---3---3---3--------------0--------------------------|


------------
RIFF B  } x2
|---------0-------------3---2-3---0-------------0---------3-0-----|
|-----------3-0---1/2---|---|-|-------------0-3-----1-----|---3-1-|
|-----0h1---|-----|-----|---|-|---------0h1---|---------0-|---|---|
|---2-|-----|-----|---1-|-1-|-1-------2-|-----|-----------|---2---|
|-----|-----|---0-0-----0---0---0-------|-----|-------3---3-------|
|-0---0-----0-----------------------0---0-----0---0---------------|

|-------0-----0-----------------3-0-------------------------|
|---0-----3/5---3p0-------------|---3-1---0-----3-3---3---0-|
|---0---------------4-3\2-0-----|---|-----0---0-0-0---0---0-|
|---0-------------------------2-|---2-----------|-----------|
|-3-------------------------3---3-------3-------|-----------|
|-----0-------------------------------------3---3---3---0---|


----------

INTRO SOLO

RIFF A  } x2

RIFF B  } x2

INTRO SOLO

RIFF A  } x2

-----------
BRIDGE SOLO
|---5b6b5p3-5-3---5b6b5p3-5-3-0------7b-7-6-5-3-5-5b-3-0------|
|---------------5-------------0------------------------0------|
|-------------------------------------------------------------|
|-2--------------------------------2------------------------2-|
|-2--------------------------------2------------------------2-|
|-------------------------------3b-0---------------------3b-0-|

|---------5-7----------------------------4-----3-----2-----|
|----5-7b(7)--7b8b7p5---5~-------------3-----2-----1-------|
|-/6------------------6-------------/4-----3-----2-----0h1-|
|--------------------------------2---------------------|---|
|--------------------------------2---------------------|---|
|--------------------------12\3b-0---------------------0---|


------
BRIDGE
|-0---0---0---------3---2-3---------------------|
|-------------------|---|-|---------3---1-0-----|
|-------------0-2---|---|-|---------|---------0-|
|---------------|-2-|-2-|-2---0---4-|-----------|
|---------------0---0---0---0---5---5-5-----5---|
|---2---3---4-----------------------------------|


|-----------------------------------------3---2-3---------------------|
|-----3-----3---------------3---1-0-------|---|-|---0-----3---1-0-----|
|-----0-0---0-----------0---0-----|-2---2-|-2-|-|---------|---------0-| x2
|---0-|-0-----------0h2---2-2-----|-------2---|-2-------4-|-----------|
|-----|-------0h2h3-----------3---3---0-------0---0---5---5-5-----5---|
|-3---0---0-----------------------------------------------------------|


-----
FINAL
|-0-0-0-0-0-0-0-0-----0-0-0-0-0-0-0-----0-0-0-0-0---|
|-0-0-0-0-0-0-0-0-----0-0-0-0-0-0-0-----0-0-0-0-0-5-|
|-|---|---|---|---------|---|---|---------|---|---0-|
|-|---|---|---|---------|---|---|---------|---|---5-|
|-|---5---4---3---2-----5---4---3---2-----5---4---3-|
|-0-----------------0-----------------0-------------|


----------

INTRO SOLO

----------
BREAK SOLO
|-3b-0------------------------------------------------|
|------0-0--------------3/5-3-0-----------------------|
|--------2h3p2p0---0-2----------3-2-0-------------0-0-|
|----------------2--(0)---------------------0-0h2---2-|
|---------------------------------------0h2---------3-|
|-------------------------------------3---------------|


Em / C / Em / C / Em / C / G / B7
VM   M   M    M   VM   M   M   M


-----------

RIFF B } x3

FINAL

INTRO SOLO

----------

Version originale :
http://www.youtube.com/watch?v=tU8-gryH0aM

---------------------
b = bend
h = hammer on
p = pull of
/ = slide
M = coup vers le bas
V = coup vers le haut
Tap to rate this tab
# A B C D E F G H I J K L M N O P Q R S T U V W X Y Z