Song name
# A B C D E F G H I J K L M N O P Q R S T U V W X Y Z

Mountain - Theme For An Imaginary Western tab

theme from an imagenary western tablature.
by colin laing
e------------------------------------------------------------------|
a------------------------------------------------------------------|
d-----------------------16---14 16--------- 14---------------------|
g-16b 16b 16br 14 16 14------------14 14 16------------------------|
b------------------------------------------------------------------|
e------------------------------------------------------------------|

e------------------------------------------------------------------------|
a------------------------------------------------------------------------|
d-----------------------16 14----14 h on 16------------------------------|
g-16 16b 16 b--16br 14------------------------14 h 16b 14 h 16-----------|
b------------------------------------------------------------------------|
e------------------------------------------------------------------------|

e------------------------------------------------------------------|
a------------------------------------------------------------------|
d-16 14 h 16-------------------------------------------------------|
g-------------14 h 16----16 14 16-------------------15-------------|
b-----------------------------------14--17b up r 14----17b 14------|
e------------------------------------------------------------------|

e---------------------------------------------------------------|
a---------------------------------------------------------------|
d----------16 14 ----4 7 bx6 4s 7s 9s 11------------------------|
g--16br 14------------------------------------------------------|
b---------------------------------------------------------------|
e---------------------------------------------------------------|

e--------------------------------------------------------------------------------------|
a--------------------------------------------------------------------------------------|
d--------------------------------------------------------------------------------------|
g--------------------------16----------------15----------------------------------------|
b-14 17 b 17 r 14 17 17 14 ----14 17--17 14 -------17 14-------------------------------|
e--------------------------------------------------------------------------------------|

e-------------------------------------------------------------------------------|
a-------------------------------------------------------------------------------|
d----------15 -------14----- 16 14-----------16balternate pickx7----------------|
g--16 14------14 16------15 ---------14s 16 -16b--------------------------------|
b-------------------------------------------------------------------------------|
e-------------------------------------------------------------------------------|

e-------------------------------------------------------------------------------|
a-------------------------------------------------------------------------------|
d------16    16----------------16------------------16 --------------------------|
g--14-----14---- 16 16 16--14------14h 16b 16r  14 ----14-----------------------|
b-------------------------------------------------------------------------------|
e-------------------------------------------------------------------------------|

e----------------------------------------------------------------------------------------|
a------------------------------------16 14 12 --- 14 16----------------------------------|
d--------------------------------------------------------------------------16------------|
g-------------16  14 16 17 17 16 14---------------------14 h 16b 16r 16 14----14 16 -----|
b-17b 17 r 14  --------------------------------------------------------------------- 17--|
e----------------------------------------------------------------------------------------|
Tap to rate this tab
 
# A B C D E F G H I J K L M N O P Q R S T U V W X Y Z