Song name
# A B C D E F G H I J K L M N O P Q R S T U V W X Y Z

Mountain - Mississippi Queen tab

MISSISSIPPI QUEEN

As recorded by Mountain


Tablature (Tab) for Guitar






Gtr I (E A D G B E) - 'Gtr. 1'

 Gtr II (E A D G B E) - 'Gtr. 2'




  Q=140
 4/4
  Gtrs I, II
                                      ~~~~~~
  W          H    E E E S      +S     E +E  E E H      H    E E E S      +S
|----------|------------------------|----------------|-------------------------|
|----------|------------------------|----------------|-------------------------|
|----------|------------------------|----------------|-------------------------|
|----------|------------5b5.5==(5)r-|----------------|------------5b5.5==(5)r--|
|----------|------------------------|-7-(7)-0--------|-------------------------|
|----------|--------5-7-------------|----------------|--------5-7--------------|


  Gtr II
  ~~~~~~
  E +E  E E H      H    Q  E  E
|----------------|------------------|
|----------------|-----------19b21==|
|----------------|------------------|
|----------------|------------------|
|-7-(7)-0--------|------------------|
|----------------|------------------|
|
| Gtr I
| ~~~~~~
| E +E  E E H      W
|----------------|------------------|
|----------------|------------------|
|----------------|------------------|
|----------------|------------------|
|-7-(7)-0--------|------------------|
|----------------|------------------|


                     ~~                     ~~
   +E    E  E     E  Q   E  E   E  E  E  E  Q   E E
|-------19--------------------|---------------------|
|-(19)r----19b21-19-17--------|---------17-19--17---|
|-----------------------18-16-|---16-18-------------|
|-----------------------------|---------------------|
|-----------------------------|---------------------|
|-----------------------------|---------------------|
|
|                                           ~~
|   E    E  E     E  Q   Q      E  E  E  E  Q   E E
|-----------------------------|---------------------|
|-----------------------------|---------------------|
|-----------------------------|---------------------|
|---7s===9--9-----9--9--------|----9--9-----7---9p0-|
|---7s===9--9-----9--9--------|----9-----9----------|
|---5s===7--7-----7--7--------|----7----------------|


               ~~                                ~~
   E  E  E  E  Q      E  E        +E    E  E  E  Q       E  E
|------------------------------|-------21-----------------------|
|-------17-19-17-----17-19b21==|=(19)r----20-19-17---------17---|
|-16-18------------------------|------------------------18------|
|------------------------------|--------------------------------|
|------------------------------|--------------------------------|
|------------------------------|--------------------------------|
|
|  E  E  E  E  E +E   Q            E    E  E  E  E Q       +E
|------------------------------|--------------------------------|
|------------------------------|--------------------------------|
|------------------------------|--------------------------------|
|--5s=7--7--7--7-(7)-----------|--------7--7-----5-5b6=====(5)r-|
|--5s=7--7--7--7-(7)-----------|--------0-----7-----------------|
|--3s=5--5--5--5-(5)-----------|--------------------------------|


      ~~~                         ~
   S  E.    Q    H        E E E E Q  E E
|-----------------------|-----------------|
|-20p17----17\----------|-----------------|
|-----------------------|---9-9-----------|
|-----------------------|---9-9-----------|
|-----------------------|---7-7-0-5--7----|
|-----------------------|-----------------|
|
|                                 ~
|  E     E  E  E Q   Q    E E E E Q  E E
|-----------------------|-----------------|
|-----------------------|-----------------|
|--7s====9--9--9-9\-----|---9-9-----------|
|--7s====9--9--9-9\-----|---9-9-----------|
|--5s====7--7--7-7\-----|---7-7-0-5--7----|
|-----------------------|-----------------|


  Gtrs I, II
                                   ~
  E E E E Q   Q    E E S    +S   E Q  E E
|----------------|------------------------|
|----------------|------------------------|
|-7s9-9-9-9\-----|------------------------|
|-7s9-9-9-9\-----|---2-------------2--x-0-|
|-5s7-7-7-7\-----|---2----------------x---|
|----------------|---0-3b4==(3)r-0----x---|


                                   ~
  E E E E Q   Q    E E E S    +S   Q  E E
|----------------|------------------------|
|----------------|------------------------|
|-7s9-9-9-9\-----|------------------------|
|-7s9-9-9-9\-----|------------------------|
|-5s7-7-7-7\-----|---7-7-----------5--7---|
|----------------|---0---4b5==(4)r--------|


                                   ~
  E E E E Q   Q    E E S    +S   E Q  E E
|----------------|------------------------|
|----------------|------------------------|
|-7s9-9-9-9\-----|------------------------|
|-7s9-9-9-9\-----|---2-------------2--x---|
|-5s7-7-7-7\-----|---2----------------x---|
|----------------|---0-3b4==(3)r-0----x-3-|


  E E E E E +Q   E   E E E E E    +E   E E
|------------------|------------------------|
|------------------|------------------------|
|------------------|------------------------|
|-5s7-7-7-7-(7)----|---7-7-7-5b6==(5)r-7----|
|-5s7-7-7-7-(7)----|---0--------------------|
|-3s5-5-5-5-(5)----|------------------------|


                             ~                                 ~~~~~~~~~~
  E E E E E +Q   E   E E E E Q  E E   E E E E Q   Q    E E E E E    +E   E E
|------------------|----------------|----------------|-----------------------|
|------------------|----------------|-7s9-9-9-9------|-----------------------|
|------------------|---2-----2------|-7s9-9-9-9\-----|-----------------------|
|-5s7-7-7-7-(7)----|---2------------|-7s9-9-9-9\-----|-----------------------|
|-5s7-7-7-7-(7)----|---0-3p0--------|-5s7-7-7-7\-----|---7-7p0-5b6==(5)r-7p0-|
|-3s5-5-5-5-(5)----|------------0-0-|----------------|---0-------------------|


                                   ~                                ~
  E E E E Q   Q    E E S    +S   E Q  E E   E E E E Q  Q    E E E E Q  E E
|----------------|------------------------|---------------|-----------------|
|-7s9-9-9-9------|------------------------|---------------|-----------------|
|-7s9-9-9-9\-----|------------------------|---------------|-----------------|
|-7s9-9-9-9\-----|---2-------------2--x---|-7s9-9-9-9-----|---9-9---7--9p0--|
|-5s7-7-7-7\-----|---2----------------x---|-7s9-9-9-9-----|---9---9---------|
|----------------|---0-3b4==(3)r-0----x-0-|-5s7-7-7-7-----|---7-------------|


  E E E E E +E  Q    E E E E Q     +Q
|------------------|---------------------|
|------------------|---------------------|
|------------------|---------------------|
|-5s7-7-7-7-(7)----|---7-7---5b6===(5)r--|
|-5s7-7-7-7-(7)----|---0---7-------------|
|-3s5-5-5-5-(5)----|---------------------|


  ~
  Q  Q  H      H    E E E S      +S
|------------|-------------------------|
|------------|-------------------------|
|------------|-------------------------|
|------------|------------5b5.5==(5)r--|
|-7----------|-------------------------|
|-0----------|--------5-7--------------|


  Gtr II
  ~~~~~~                                       ~~~~~~~~
  E +E  E E H      W          E    +E   E E E  Q   +E    H       Q  E S S
|----------------|----------|-----------7--------------|----------------------|
|----------------|----------|-7b9==(7)r---9-7--5---(5)-|----------------7b9===|
|----------------|----------|--------------------------|----------------------|
|----------------|----------|--------------------------|----------------------|
|-7-(7)-0--------|----------|--------------------------|----------------------|
|----------------|----------|--------------------------|----------------------|
|
| Gtr I
| ~~~~~~                                                         ~
| E +E  E E H      W          E     E   E E Q    Q       E E E E Q  E E
|----------------|----------|--------------------------|----------------------|
|----------------|----------|--------------------------|----------------------|
|----------------|----------|-7s====9---9-9-9\---------|---9-9----------------|
|----------------|----------|-7s====9---9-9-9\---------|---9-9----------------|
|-7-(7)-0--------|----------|-5s====7---7-7-7\---------|---7-7-0-5--7---------|
|----------------|----------|--------------------------|----------------------|


                ~~~~~~~~
  +Q     E E E  Q   +E    H               Q  E S S
|--------7--------------|-----------------------------|
|-(7)r-----9-7--5---(5)-|------------------------7b9==|
|-----------------------|-----------------------------|
|-----------------------|-----------------------------|
|-----------------------|-----------------------------|
|-----------------------|-----------------------------|
|
|                                         ~
|  E   E E E Q    Q       E E S    +S   E Q  E E
|-----------------------|-----------------------------|
|-----------------------|-----------------------------|
|--7s==9-9-9-9\---------|-----------------------------|
|--7s==9-9-9-9\---------|---2-------------2--x-0------|
|--5s==7-7-7-7\---------|---2----------------x--------|
|-----------------------|---0-3b4==(3)r-0----x--------|


                      ~~~~~~
  +Q     E    +E   E  E +E  E   H               Q  E S S
|-----------------------------|-----------------------------|
|-(7)r---8b9==(8)r-7--5-(5)---|------------------------7b9==|
|-----------------------------|-----------------------------|
|-----------------------------|-----------------------------|
|-----------------------------|-----------------------------|
|-----------------------------|-----------------------------|
|
|                                               ~
|  E   E E     E   Q     Q      E E E S    +S   Q  E E
|-----------------------------|-----------------------------|
|-----------------------------|-----------------------------|
|--7s==9-9-----9---9\---------|-----------------------------|
|--7s==9-9-----9---9\---------|-----------------------------|
|--5s==7-7-----7---7\---------|---7-7-----------5--7--------|
|-----------------------------|---0---4b5==(4)r-------------|


             ~~~~~~~
  +E   E E E E  +E  Q    H               S  S      +E   +Q
|------7---------------|---------------------------------------|
|-(7)r---9-7-5--(5)----|-------------------10b12==(10)-(10)r---|
|----------------------|---------------------------------------|
|----------------------|---------------------------------------|
|----------------------|---------------------------------------|
|----------------------|---------------------------------------|
|
|                                        ~
|  E   E E E Q      Q    E E S    +S   E Q               E   E
|----------------------|---------------------------------------|
|----------------------|---------------------------------------|
|--7s==9-9-9-9\--------|---------------------------------------|
|--7s==9-9-9-9\--------|---2-------------2---------------x-----|
|--5s==7-7-7-7\--------|---2-----------------------------x-----|
|----------------------|---0-3b4==(3)r-0-----------------x---3-|


   ~~~~~~~~~~~~~~~~~~~~~~~~~~~~~
   W                       +Q     Q   E     E    E  E
|-----------------------|------------------10---------|
|-10b12=================|=(10)r-----------------12-10-|
|-----------------------|-----------------------------|
|-----------------------|-----------------------------|
|-----------------------|-----------------------------|
|-----------------------|-----------------------------|
|
|  E     E E E E +Q   E     E   E E E E    +E    E  E
|-----------------------|-----------------------------|
|-----------------------|-----------------------------|
|-----------------------|-----------------------------|
|--5s====7-7-7-7-(7)----|-------7-7-7-5b6==(5)r--7----|
|--5s====7-7-7-7-(7)----|-------0---------------------|
|--3s====5-5-5-5-(5)----|-----------------------------|


  ~~
  H       E +Q   E   W
|------------------|----------------|
|-8----------------|----------------|
|---------9-(9)----|----------------|
|------------------|----------------|
|------------------|----------------|
|------------------|----------------|
|
|                            ~
| E E E E E +Q   E   E E E E Q  E E
|------------------|----------------|
|------------------|----------------|
|------------------|---2-----2------|
|-5s7-7-7-7-(7)----|---2------------|
|-5s7-7-7-7-(7)----|---0-3p0--------|
|-3s5-5-5-5-(5)----|------------0-0-|


   Q       H           +S   S  E   H       Q         E  E
|--------------------------------|---------------------15b17===|
|-15b17---15b17r======(15)-15p12-|-----------------------------|
|--------------------------------|-----------------------------|
|--------------------------------|-----------------------------|
|--------------------------------|-----------------------------|
|--------------------------------|-----------------------------|
|
|                                          ~~~~~~~~~~
|  E    E  E    E Q     Q          E E E E E    +E   E  E
|--------------------------------|-----------------------------|
|--7s===9--9----9-9--------------|-----------------------------|
|--7s===9--9----9-9\-------------|-----------------------------|
|--7s===9--9----9-9\-------------|-----------------------------|
|--5s===7--7----7-7\-------------|---7-7p0-5b6==(5)r-7p=0------|
|--------------------------------|---0-------------------------|


               ~~~~~~~~~~~~~
   +E    E  E  E  +Q    +Q     H               E S  S     +S   S  E
|-(15)r-15-12----------------|--------------------------------------|
|-------------15-(15)--(15)--|---------------------15b17r(15)-15p12-|
|----------------------------|--------------------------------------|
|----------------------------|--------------------------------------|
|----------------------------|--------------------------------------|
|----------------------------|--------------------------------------|
|
|                                              ~
|   E    E  E  E   Q     Q     E E S    +S   E Q           E      E
|----------------------------|--------------------------------------|
|---7s===9--9--9---9---------|--------------------------------------|
|---7s===9--9--9---9\--------|--------------------------------------|
|---7s===9--9--9---9\--------|---2-------------2-----------x--------|
|---5s===7--7--7---7\--------|---2-------------------------x--------|
|----------------------------|---0-3b4==(3)r-0-------------x------0-|


   Q       H.               +Q.       E E  S      +S   E  E
|------------------------|----------------------------------|
|------------------------|-----------15---------------------|
|-14b16---14b16==========|=(14)r----------14b16==(14)r---14-|
|------------------------|----------------------------------|
|------------------------|----------------------------------|
|------------------------|----------------------------------|
|
|                                       ~
|  E    E  E     E Q  Q      E   E E  E Q              E  E
|------------------------|----------------------------------|
|------------------------|----------------------------------|
|------------------------|----------------------------------|
|--7s===9--9-----9-9-----|-------9-9----7--------------9p=0-|
|--7s===9--9-----9-9-----|-------9----9---------------------|
|--5s===7--7-----7-7-----|-------7--------------------------|


   ~~~~~~~~~~~~~
   H        +Q      Q    W
|----------------------|---------------------|
|----------------------|---------------------|
|-12-------(12)--------|---------------------|
|----------------------|---------------------|
|----------------------|---------------------|
|----------------------|---------------------|
|
|  E E E E   E  +E  Q    E E E E Q     +Q
|----------------------|---------------------|
|----------------------|---------------------|
|----------------------|---------------------|
|--5s7-7-7---7--(7)----|---7-7---5b6===(5)r--|
|--5s7-7-7---7--(7)----|---0---7-------------|
|--3s5-5-5---5--(5)----|---------------------|


  ~
  Q  Q  H      H    E E E S      +S
|------------|-------------------------|
|------------|-------------------------|
|------------|-------------------------|
|------------|------------5b5.5==(5)r--|
|-7----------|-------------------------|
|-0----------|--------5-7--------------|
|
| ~
| Q  Q  H      H    E E E S      +S
|------------|-------------------------|
|------------|-------------------------|
|------------|-------------------------|
|------------|------------5b5.5==(5)r--|
|-7----------|-------------------------|
|-0----------|--------5-7--------------|


  ~~~~~~                                                                ~~~
  E +E  E E H      W          H       Q   E  E        +E    E  E  E  E  Q.
|----------------|----------|----------------------|-------19------------------|
|----------------|----------|---------------19b21==|=(19)r----21-19-17---------|
|----------------|----------|----------------------|-------------------18------|
|----------------|----------|----------------------|---------------------------|
|-7-(7)-0--------|----------|----------------------|---------------------------|
|----------------|----------|----------------------|---------------------------|
|
| ~~~~~~                                                             ~~
| E +E  E E H      W          E E E E Q   Q            E    E  E  E  Q     E E
|----------------|----------|----------------------|---------------------------|
|----------------|----------|----------------------|---------------------------|
|----------------|----------|-7s9-9-9-9\-----------|--------9--9---------------|
|----------------|----------|-7s9-9-9-9\-----------|--------9--9---------------|
|-7-(7)-0--------|----------|-5s7-7-7-7\-----------|--------7--7--0--5-----7---|
|----------------|----------|----------------------|---------------------------|


                                                 ~~~~~~~~~~~
  H       Q   E  E        +E    E  E          E  Q.     +E
|----------------------|-------19---------------------------|
|---------------19b21==|=(19)r----21---------19-17-----(17)-|
|----------------------|------------------------------------|
|----------------------|------------------------------------|
|----------------------|------------------------------------|
|----------------------|------------------------------------|
|
|                                                ~~~
| E E E E Q   Q            E    E  S    +S    E  Q   E   E
|----------------------|------------------------------------|
|----------------------|------------------------------------|
|-7s9-9-9-9\-----------|------------------------------------|
|-7s9-9-9-9\-----------|--------2----------------2---x---0--|
|-5s7-7-7-7\-----------|--------2--------------------x------|
|----------------------|--------0--3b4==(3)r--0------x------|


                                                     ~
  H       E   Q.         E E  E  E         E    +E   Q
|---------------------|----------------------------------|
|------------10b12----|-10-8-10-10b12------8b9==(8)r-----|
|---------------------|------------------------------9---|
|---------------------|----------------------------------|
|---------------------|----------------------------------|
|---------------------|----------------------------------|
|
|                                          ~~~~
| E E E E Q        Q     E E  E  S    +S   Q         E E
|---------------------|----------------------------------|
|---------------------|----------------------------------|
|-7s9-9-9-9\----------|----------------------------------|
|-7s9-9-9-9\----------|----------------------------------|
|-5s7-7-7-7\----------|----7--7------------5---------7---|
|---------------------|----0-----4b5==(4)r---------------|


   ~~~                                         ~~
  +Q   Q   Q   S    +E.   +Q     E         E E Q.
|--------------7b9==(7)-|-(7)r---7---------4----------|
|--------------7b9==(7)-|-(7)r---------------7-5------|
|-(9)-------------------|-----------------------------|
|-----------------------|-----------------------------|
|-----------------------|-----------------------------|
|-----------------------|-----------------------------|
|
|                                            ~
|  E E E E Q   Q           E   E S    +S   E Q    E E
|-----------------------|-----------------------------|
|-----------------------|-----------------------------|
|--7s9-9-9-9\-----------|-----------------------------|
|--7s9-9-9-9\-----------|------2-------------2----x---|
|--5s7-7-7-7\-----------|------2------------------x---|
|-----------------------|------0-3b4==(3)r-0------x-3-|


                                                            ~~~~~~~~
  H       E  S      +S   +E    E    E      +E    E E  E     E   +Q
|-----------------------------10-|------------------------------------|
|-----------10b12==(10)-(10)r----|-10b12==(10)r-10-8-10---------------|
|--------------------------------|--------------------------9---(9)---|
|--------------------------------|------------------------------------|
|--------------------------------|------------------------------------|
|--------------------------------|------------------------------------|
|
| E E E E E +Q                 E    E       E    E E  E    +E    E  E
|--------------------------------|------------------------------------|
|--------------------------------|------------------------------------|
|--------------------------------|------------------------------------|
|-5s7-7-7-7-(7)------------------|----------7----7-7--5b6==(5)r--7----|
|-5s7-7-7-7-(7)------------------|----------0-------------------------|
|-3s5-5-5-5-(5)------------------|------------------------------------|


                               ~~~~~~~~~~~~~~
  H       E  Q     E    E E  E E +E   E  +Q
|-----------10b12----|-10-7--------------------|
|--------------------|------10-8-(8)-10-(10)---|
|--------------------|-------------------------|
|--------------------|-------------------------|
|--------------------|-------------------------|
|--------------------|-------------------------|
|
|                                 ~~~
| E E E E E +Q     E    E E  E E  Q       E  E
|--------------------|-------------------------|
|--------------------|-------------------------|
|--------------------|----2-------2------------|
|-5s7-7-7-7-(7)------|----2--------------------|
|-5s7-7-7-7-(7)------|----0--3p0---------------|
|-3s5-5-5-5-(5)------|--------------------0--0-|


                                                    ~~~
  H       E   E    E  E        +E    E  E  E  S     E.       E  +E
|---------------------------|----------------------------------------|
|------------19b21---19b21==|=(19)r-------17-20p===17-------17-(17)--|
|---------------------------|-------16-18----------------------------|
|---------------------------|----------------------------------------|
|---------------------------|----------------------------------------|
|---------------------------|----------------------------------------|
|
|                                             ~~~~~~~~~~~~~~
| E E E E Q        Q            E    E  E  E  E        +E    E   E
|---------------------------|----------------------------------------|
|-7s9-9-9-9-----------------|----------------------------------------|
|-7s9-9-9-9\----------------|----------------------------------------|
|-7s9-9-9-9\----------------|----------------------------------------|
|-5s7-7-7-7\----------------|--------7--7p=0--5b6======(5)r--7p==0---|
|---------------------------|--------0-------------------------------|


  H       E   S      +S   +Q       E  E  E          E  E  E  E  E
|------------19b21==(19)-(19)r--|-20-21-20---------21-20-21-20-21-|
|-------------------------------|---------------------------------|
|-------------------------------|---------------------------------|
|-------------------------------|---------------------------------|
|-------------------------------|---------------------------------|
|-------------------------------|---------------------------------|
|
|                                                      ~~
| E E E E Q                Q       E  E  S    +S    E  Q     E  E
|-------------------------------|---------------------------------|
|-7s9-9-9-9---------------------|---------------------------------|
|-7s9-9-9-9\--------------------|---------------------------------|
|-7s9-9-9-9\--------------------|-----2----------------2-----x----|
|-5s7-7-7-7\--------------------|-----2----------------------x----|
|-------------------------------|-----0--3b4==(3)r--0--------x--0-|


           ~~~~~
   Q       H         Q    Q   E  E      +E    E  E  E
|-19b21---19b21---------|-------19b21==(19)r-19-16----|
|-----------------------|-----------------------------|
|-----------------------|--------------------------16-|
|-----------------------|-----------------------------|
|-----------------------|-----------------------------|
|-----------------------|-----------------------------|
|
|                                        ~~~~~
|  E    E  E    E Q  Q    E E E  E       Q       E  E
|-----------------------|-----------------------------|
|-----------------------|-----------------------------|
|-----------------------|-----------------------------|
|--7s===9--9----9-9-----|---9-9----------7-------9p=0-|
|--7s===9--9----9-9-----|---9----9--------------------|
|--5s===7--7----7-7-----|---7-------------------------|


                                ~~~~~~~~~~~
   S      +S    E  E      +E    Q      +E  E
|--------------------------------------------|
|--------------17-19b21==(19)r-17-----(17)---|
|-18b19==(18)r-------------------------------|
|--------------------------------------------|
|--------------------------------------------|
|--------------------------------------------|
|
|  E            E  E       E    E +E    Q
|--------------------------------------------|
|--------------------------------------------|
|--------------------------------------------|
|--5s===========7--7-------7----7-(7)--------|
|--5s===========7--7-------7----7-(7)--------|
|--3s===========5--5-------5----5-(5)--------|


                        ~
  W                     Q  Q  H      H    E E E S      +S
|---------------------|------------|------------------------|
|---------------------|------------|------------------------|
|---------------------|------------|------------------------|
|---------------------|------------|------------5b5.5==(5)r-|
|---------------------|-7----------|------------------------|
|---------------------|-0----------|--------5-7-------------|
|
|                       ~
| E E E E Q     +Q      Q  Q  H      H    E E E S      +S
|---------------------|------------|------------------------|
|---------------------|------------|------------------------|
|---------------------|------------|------------------------|
|---7-7---5b6===(5)r--|------------|------------5b5.5==(5)r-|
|---0---7-------------|-7----------|------------------------|
|---------------------|-0----------|--------5-7-------------|


  Gtrs I, II
  ~~~~~~
  E +E  E E H      H    E E E S      +S
|----------------|------------------------|
|----------------|------------------------|
|----------------|------------------------|
|----------------|------------5b5.5==(5)r-|
|-7-(7)-0--------|------------------------|
|----------------|--------5-7-------------|


  ~~~~~~
  E +E  E E H      H    E E E S      +S
|----------------|------------------------|
|----------------|------------------------|
|----------------|------------------------|
|----------------|------------5b5.5==(5)r-|
|-7-(7)-0--------|------------------------|
|----------------|--------5-7-------------|


  ~~~~~~                                    ~~~~~~
  E +E  E E H      H    E E E S      +S     E +E  E E H
|----------------|------------------------|----------------*|
|----------------|------------------------|----------------*|
|----------------|------------------------|----------------*|
|----------------|------------5b5.5==(5)r-|----------------*|
|-7-(7)-0--------|------------------------|-7-(7)----------*|
|----------------|--------5-7-------------|----------------*|






Duration Legend
---------------
W - whole; H - half; Q - quarter; E - 8th; S - 16th; T - 32nd; X - 64th; a - acciaccatura
+ - note tied to previous; . - note dotted; .. - note double dotted
Uncapitalized letters represent notes that are staccato (1/2 duration)
Irregular groupings are notated above the duration line
Duration letters will always appear directly above the note/fret number it represents the
duration for.  Duration letters with no fret number below them represent rests.  Multi-
bar rests are notated in the form Wxn, where n is the number of bars to rest for.  Low
melody durations appear below the staff

Tablature Legend
----------------
 h   - hammer-on
 p   - pull-off
 b   - bend
 pb  - pre-bend
 r   - bend release (if no number after the r, then release immediately)
 /\  - slide into or out of (from/to "nowhere")
 s   - legato slide
 S   - shift slide
 - natural harmonic
[n]  - artificial harmonic
n(n) - tapped harmonic
 ~   - vibrato
 tr  - trill
 T   - tap
 TP  - trem. picking
 PM  - palm muting
\n/  - tremolo bar dip; n = amount to dip
 \n  - tremolo bar down
 n/  - tremolo bar up
/n\  - tremolo bar inverted dip
 =   - hold bend; also acts as connecting device for hammers/pulls
 <> - volume swell (louder/softer)
 x   - on rhythm slash represents muted slash
 o   - on rhythm slash represents single note slash

Misc Legend
-----------
 |  - bar
||  - double bar
||o - repeat start
o|| - repeat end
*|  - double bar (ending)
 :  - bar (freetime)
 $  - Segno
 &  - Coda
Tempo markers -  = BPM(8/16=s8/s16), where s8 = swing 8ths, s16 = swing 16ths
Tap to rate this tab
# A B C D E F G H I J K L M N O P Q R S T U V W X Y Z