Song name
# A B C D E F G H I J K L M N O P Q R S T U V W X Y Z

Mountain - Blood Of The Sun tab

Help us improve GuitareTab! Take a short survey!
Intro-

e|----------------|----------------|----3-53--------|----------------|
B|----------------|----------------|3-6-----6-3---3-|----------------|
G|----------------|----------3-5-35|------------5---|----------3-5-35|
D|------3-5-3---3-|------3-5-------|----------------|------3-5-------|
A|3-4-5-------5---|--3-5-----------|----------------|--3-5-----------|
E|----------------|----------------|----------------|----------------|
  1 + 2 + 3 + 4 +  2 + 2 + 3 + 4 +  3 + 2 + 3 + 4 +  4 + 2 + 3 + 4 +

e|----3-53--------|----------------|----3-53--------|----------------|
B|3-6-----6-3---3-|----------------|3-6-----6-3---3-|----------------|
G|------------5---|----------3-5-35|------------5---|----------3-5-35|
D|----------------|------3-5-------|----------------|------3-5-------|
A|----------------|--3-5-----------|----------------|--3-5-----------|
E|----------------|----------------|----------------|----------------|
  1 + 2 + 3 + 4 +  2 + 2 + 3 + 4 +  3 + 2 + 3 + 4 +  4 + 2 + 3 + 4 +

Verse-

These three chords make the progression for the verse. I haven't figured out the solos, 
it'd be pretty easy to jam some out with a band (mostly mixolydian/blues scales). It's 
they're improvised anyway.

e|----------------|----------------|----------------|----------------|
B|6---------------|----------------|3---------------|5---------------|
G|7---------------|----------------|3---------------|5---------------|
D|7---------------|----------------|3---------------|5---------------|
A|5---------------|----------------|1---------------|3---------------|
E|----------------|----------------|----------------|----------------|
  1 + 2 + 3 + 4 +  2 + 2 + 3 + 4 +  3 + 2 + 3 + 4 +  4 + 2 + 3 + 4 +
Related for Blood Of The Sun tab