Song name
# A B C D E F G H I J K L M N O P Q R S T U V W X Y Z

Mourning September - Glorrietta tab

artist: mourning september
album: a man can change his stars
song: glorietta


This song is awesome. I know tony chavez personally and learned this song from him so 
better beleive it's correct.
haha
it's played in open Dropped C and has two parts in which i will tab out.
this song can also be played in Dropped D and i will tab that later
Peace.

intro:

guitar one:
e|----------------------------------------------------------------------|
b|----------------------------------------------------------------------|
g|5-55-54-4-4-4-5-4-555-5-4-4-4-4-5-45545-54-5-4-5-4-5545-54-5-4-5-4-5--|
d|5-55-55-5-5-5-5-5-555-5-5-5-5-5-5-5555-55-5-5-5-5-5555-55-5-5-5-5-5---|
a|3-33-33-3-3-3-3-3-333-3-3-3-3-3-3-3333-33-3-3-3-3-3333-33-3-3-3-3-3---|
D|----------------------------------------------------------------------|

guitar two:
e|---------------------------------------------------------------------|
b|---------------------------------------------------------------------|
g|5---------------7---------------9---------------10--------1212121212-|
d|---------------------------------------------------------xxxxxxxxxx--|
a|3---------------5---------------7---------------8--------1010101010--|
D|---------------------------------------------------------------------|

intro cont'd:
Tap to rate this tab
 
# A B C D E F G H I J K L M N O P Q R S T U V W X Y Z