Song name
# A B C D E F G H I J K L M N O P Q R S T U V W X Y Z

Mourning Tide - Sugar Sugar tab

Its my first tab and i havent completely tabbed out the song but i have 90% down well.

intro               x2                x2
E|-------------------|------------------|------------|-------------------|
B|-------------------|------------------|------------|-------------------|
G|-------------------|------------------|------------|---6s8-6-----------|
D|--s11--10-9-10-9---|-----9-8----------|------------|----------9s11-11--|
A|------------------9|-----------9-7-9--|--s11--9-8-9|-------------------|
D|-------------------|------------------|------------|-------------------|

intro cont.
E|-------------9--|
B|---6s9-7-6s7----|
G|----------------|
D|----------------|
A|----------------|
D|----------------|

verse  (rythm)      x2          x2
E|----------------|------------|------------------------|
B|----------------|------------|------------------------|
G|----------------|------------|------------------------|
D|-----4--4--2--4-|---2-2--1-2-|---2--0--1--6--4-4-2-4--|
A|-----4--4--2--4-|---2-2--1-2-|---2--0--1--6--4-4-2-4--|
D|-----4--4--2--4-|---2-2--1-2-|---2--0--1--6--4-4-2-4--|

verse (second time around) (lead)

							x2
E|----------------------------------------------------|
B|----------------------------------------------------|
G|--11-11-9--11------------------9-9--8--9------------|
D|--11-11-9--11---11-9-8h9p8-----9-9--8--9---9-8-8h9p8|
A|--9--9-7--9--------------------7-7--6--7------------|
D|----------------------------------------------------|
   p.m now and then

Chorus
				    x4
E|----------------------------------|
B|----------------------------------|
G|----------------------------------|
D|---4-4---8s9--9s11---0--2---9p8---|
A|---4-4---------------0--2-------9-|
D|---4-4---------------0--2---------|

Solo #1 (working on it)

E|---------------------------------------------------------s16-14|
B|---------------------------------------------------------------|
G|-------p.h9---9-8-8h9p8-----------13--11--9h11p9---------------|
D|------------------------9s11----------------------12s14--------|
A|(???)----------------------------------------------------------|
D|---------------------------------------------------------------|

Bridge

E|---------------------------------|
B|---------------------------------|
G|---------------------------------|
D|--2--4--2--4---7-7-7---2--4------|
A|--2--4--2--4---7-7-7---2--4------|
D|--2--4--2--4---7-7-7---2--4------|

Solo #2 (also working on)

E|------------------------------------------------9-9-h12p9-----9-9-h12|
B|--10-10-10---------------------10-10-10-------------------10---------|
G|--9--9--9---9--11---11--9--11--9--9--9---9--11-----------------------|
D|---------------------------------------------------------------------|
A|---------------------------------------------------------------------|
D|---------------------------------------------------------------------|

E|-p9-------------------------------------12-17p15p12------------|
B|----10---10-10-10---------10--b12--10---------------15p12------|
G|---------9--9--9---9--11--9----b11------------------------14p12|
D|---------------------------------------------------------------|
A|---------------------------------------------------------------|
D|---------------------------------------------------------------|

solo #2 cont. also ending riff
E|--------------------------|
B|--------------------------|
G|--------------------------|
D|----------------12--14----|
A|-------12-13-14-----------|
D|-12-15--------------------|

Then it goes back into the bridge and finishes on the ending riff.
Yep so thats my interpretation of it, feel free to fix or add whatever.
Tap to rate this tab
# A B C D E F G H I J K L M N O P Q R S T U V W X Y Z