Song name
# A B C D E F G H I J K L M N O P Q R S T U V W X Y Z

Mourning Tide - Viper Town tab

INTRO
e---------------------------------------------------|
B---------------------------------------------------|
G--7bend-----------10--9----12-12-12s10-------------|    x3
D--------------0---10-10----12-12-12s10-------------|
A--------------0------------------------------------|
D--------------0------------------------------------|

INTRO 4th Time
e---------------------------------------------------|
B---------------------------------------------------|
G------10-9------10-9-7-12-10-9-10------------------|
D-0----10-10----------------------------------------|
A-0-------------------------------------------------|
D-0-------------------------------------------------|


Solo Bit
e-------------------------------13------------------|
B-----15----13-15-13-15----13-15--15----13-15-13-15-|
G---------------------------------------------------|
D---------------------------------------------------|
A---------------------------------------------------|
D---------------------------------------------------|

e---13-15(bend up)-13---------------------------13-----------|
B---------------------15----13-15-13-15----13-15--15---13-15-|
G------------------------------------------------------------|
D------------------------------------------------------------|
A------------------------------------------------------------|
D------------------------------------------------------------|

Interlude between solo thing and verse
e---------------------------------------------------|
B---15-13-12-13-12-10-12----------------------------|
G---------------------------------------------------|
D---------------------------------------------------|
A---------------------------------------------------|
D---------------------------------------------------|

VERSE x 2
e---------------------------------------------------------|
B---------------------------------------------------------|
G-----------------10-10-9---------------------------------|
D--0---3-0-3s5-0--10-10-10--0--3-0-3s5-0--303000----------|
A--0---3-0-3s5-0------------0--3-0-3s5-0--303000----------|(let ring for a bit)
D--0---3-0-3s5-0------------0--3-0-3s5-0--303000----------|

e-----------------------------------------|-1st Time--------|--------------|
G-----------------------------------------|-----------------|--------------|
B-----------------10-10-9-----------------|-10-9----10-9----|-2nd time-----|
D--0---3-0-3s5-0--10-10-10--0--3-0-3s5----|-----10------10--|-6---5--3-0---|
A--0---3-0-3s5-0------------0--3-0-3s5----|-----------------|-6---5--3-0---|
D--0---3-0-3s5-0------------0--3-0-3s5----|-----------------|-6---5--3-0---|

Pre Chorus
e------------------------------------------------------|-1st-time--|
B------------------------------------------------------|-----------|
G--10-9-7-----10-9------------10-9-7----10-9-----------|-----------|
D-----------------10-----0-3-0----------------3-3-33-0-|-6--5--3-0-|
A---------00-------------0-3-0-------00-------3-3-33-0-|-6--5--3-0-|
D---------00-------------0-3-0-------00-------3-3-33-0-|-6--5--3-0-|

|--2nd-time--|
|------------|
|-10-9-------|
|-----10-x5--|
|------------|
|------------|

Chorus (lead)
e-------------------------------------------------------------------------|
B-------------------------------------------------------------------------|
G---------10-9-7-7-7--12-12-12-11-11-12-12-12--14-14-14-13-11---17---19---|
D--0-0-0-----------------------------------------------------x2----x8-----|x8
A--0-0-0--8--7-5-5-5--10-10-10-9--9--10-10-10--12-12-12-11-9----15---17---|
D--0-0-0-------------0------------------------0---------------0-----------|


Chorus (rhythm)
e----------------------------------------------|
B----------------------------------------------|
G----------------------------------------------|
D-0---3---5----8-8-8-8--10-10-10---------------|
A-0---3---5----8-8-8-8--10-10-10---------------|
D-0---3---5----8-8-8-8--10-10-10---------------|
	       * * * *
               PM

Pre verse for 2nd verse
e----------------------------------------------------------   |-(2nd time)---|
B----------------------------------------------------------   |--------------|
G---------------------10-10-9------------------------------x2 |-10-9--x2-----|
D---------------------10-10-10-----------------------------   |-----10-------|
A--0--------------0------------0------------0--------------   |--------------|
D--0---0-3-0-3-5--0------------0--0-3-0-3-5-0-0-3-0-3-0-0--   |--------------|

Verse 2 same as Verse 1

Pre chorus

chrous

Bridge
e---------------------------------------------------|
B---------------------------------------------------|
G---------------------------------------------------|
D---------------------------------------------------|
A-0------------3------------5-------------3-5-3-2-0-|
D-0-0-0-0-0000-3-0-0-0-0000-5-0-0-0-0000--3-5-3-2-0-|

Breakdown
e---------------------------------------------------|
B---------------------------------------------------|
G---------------------------------------------------|
D--0-0-0--0-0-0-000-0-0-----------------------------|
A--0-0-0--0-0-0-000-0-0-----------------------------|
D--0-0-0--0-0-0-000-0-0-----------------------------|

Soz i dont no the tapping bit

Outro is the breakdown but slower
Tap to rate this tab
# A B C D E F G H I J K L M N O P Q R S T U V W X Y Z