Song name
# A B C D E F G H I J K L M N O P Q R S T U V W X Y Z

Mourning Tide - Do You Have It In Black tab

Intro + Verse
e-----------------------------------------------------------------|
B-----------------------------------------------------------------|
G-----------------------------------------------------------------|
D-0--00000000000-10-10-8-88888888888-8-8--------------------------|
A-0--00000000000-10-10-8-88888888888-8-8-repeat-------------------|
D-0--00000000000-10-10-8-88888888888-8-8--------------------------|
     ***********         ***********

Pre Chorus
e-------------------------------------------------------------|
B-------------------------------------------------------------|    (note: second time dont
G------------------------------------------     play last 10--|8,7, its a
D-------------------------------------------------------------|     sweep but i cbf figuring
A-5-7-8--5-7-8--10-8-7--10-8-7------all x 2-------------------|     out :P)
D--0-0----0-0-----0-0-----0-0---------------------------------|
   * *    * *     * *     * *

Chorus
e------------------------------------------|
B------------------------------------------|
G------------------------------------------|
D-----------------Tremlo pick--------------|
A--500007008x2-------(10)00008007x2--------|
D------------------------------------------|

little solo

Intro

Pre Chorus

Interlude
e------------------------------------------|
B------------------------------------------|
G------------------------------------------|
D------------------------------------------|
A-000-00-0-00-000---Repeat-----------------|
D-000-00-0-00-000--------------------------|

The bit after that is the same as the interlude but slower

High bit???
e-------14--------14--------16--14--12-----|
B--12-12--12-12-12--12-12-12--12--12--12---|
G------------------------------------------|
D------------------------------------------|
A------------------------------------------|
D------------------------------------------|


e------------------------------------------|
B------------------------------------------|
G---7s9-9s10-10s12-12s14-------------------|
D------------------------------------------|
A---5s7-7s8--8-s10-10s12-------------------|
D------------------------------------------|


Bit After
e------------------------------------------|
B------------------------------------------|
G------------------------------------------|
D--8-8-8-8-8-8-8-8---3-3-0-00-00-----------|
A--8-8-8-8-8-8-8-8---3-3-0-00-00-----------|
D--8-8-8-8-8-8-8-8---3-3-0-00-00-----------|


after that theirs just variations of the high bit

soz im missing a bunch of the bits out of this song but ill try fig out the rest and as 
as i do ill post it
Tap to rate this tab
# A B C D E F G H I J K L M N O P Q R S T U V W X Y Z