Guitaretab - guitar tabs
Song name
# A B C D E F G H I J K L M N O P Q R S T U V W X Y Z
Home / M / Movielife / Hey tab

Movielife - Hey tab

The Movielife - Hey
eb|-------------------------------------------|\
Bb|-222222---------------333333---------------| \
Gb|-222222-111111-222222-222222---------------|  \
Db|-222222-222222-444444-000000---------------|   \
Ab|-000000-222222-444444----------------------|    \
Eb|--------000000-222222----------------------|     \
						   Verse
eb|-------------------------------------------|     /
Bb|-222222------------------------------------|    /
Gb|-222222-111111-222222-111111---------------|   /
Db|-222222-222222-444444-222222---------------|  /
Ab|-000000-222222-444444-222222---------------| /
Eb|--------000000-222222-000000---------------|/


eb|-------------------------------------------|\
Bb|-333------------333------------------------| \
Gb|-222-111--------222-111-222222-1~----------|  \
Db|-000-222-444444-000-222-222222-2~----------|   \
Ab|-----222-444444-----222-000000-2~----------|    \
Eb|-----000-222222-----000--------0-----------|     \
						  Chorus
eb|-------------------------------------------|     /
Bb|-333-------------333-----------------------|    /
Gb|-222-111-222-----222-111-2-----------------|   /
Db|-000-222-222-444-000-222-2~----------------|  /
Ab|-----222-000-444-----222-0~----------------| /
Eb|-----000-----222-----000-------------------|/
[ Tab from: http://www.guitaretab.com/m/movielife/130951.html ]
Solo  Is played over the verse chords (may not be 100% correct as I just
transposed it from another tab
eb|-------------------------------------------|
Bb|--------12---------------------------------|
Gb|-----9------------------------9--9--9------|
Db|-11--------9h11p9h11p9h11---11-11-11-11----|
Ab|--------------------------11---------------|
Eb|-------------------------------------------|

eb|-------------------------------------------|
Bb|------12-------12-------12-------12--------|
Gb|-------------------------------------------|
Db|-9h11-----9--------9h11-----9h11-----------|
Ab|------------11-----------------------------|
Eb|-------------------------------------------|

eb|-----------------99999999------------------|
Bb|-----121212121212--------121212121212------|
Gb|-------------------------------------------|
Db|-9h11--------------------------------------|
Ab|-------------------------------------------|
Eb|-------------------------------------------|
          
eb|-------------------------------------------|
Bb|------12-/--14-12--------------------------|
Gb|------------------14-11~-------------------|
Db|-9h11--------------------------------------|
Ab|-------------------------------------------|
Eb|-------------------------------------------|




For the final chorus there is a extra 3 chords to end on

eb|-------------------------------------------|\
Bb|-333------------333------------------------| \
Gb|-222-111--------222-111-222222-1~----------|  \
Db|-000-222-444444-000-222-222222-2~----------|   \
Ab|-----222-444444-----222-000000-2~----------|    \
Eb|-----000-222222-----000--------0-----------|     \
					    Final Chorus
eb|-------------------------------------------|     /
Bb|-333-------------333------------333--------|    /
Gb|-222-111-222-----222-111-2~-----222--------|   /
Db|-000-222-222-444-000-222-2~-----000-222--4-|  /
Ab|-----222-000-444-----222-0~---------222--4-| /
Eb|-----000-----222-----000------------000--2-|/

Structure

Verse
Chorus
Verse
Chorus
Solo (verse chords)
Verse
Final Chorus
Related for Hey tab