Song name
# A B C D E F G H I J K L M N O P Q R S T U V W X Y Z

Movielife - This Time Next Year tab

Help us improve GuitareTab! Take a short survey!
The Movielife-This time next year

Tune 1/2 step down

Guitar 1
e---------------------------------------------------------------------|
B---------------------------------------------------------------------|
G---------------------------------------------------------------------|
D----5-----5----5-----5-----5----5-----5-----5----5-----5-----5----5--|
A-----6-----6----------6-----6----------6-----6----------6-----6------|
E-44----44-----6---44----44-----6---44----44-----6---44----44---------|
 *0:00-0:52-1:03-2:27-------------------------------------------------|

Guitar 2
e-------------------------------------------------------------------|
B-------------------------------------------------------------------|
G-------------------------------------------------------------------|
D-66----66----88---66----66----88---66----66----88---66----66----8--|
A-66----66----88---66----66----88---66----66----88---66----66----8--|
E-44----44----66---44----44----66---44----44----66---44----44----6--|
 *0:00-0:52-2:38

Guitar 2
e-----------------------------------------------------------------------|
B--Play once palm muted then once open----------------------------------|
G-----------------------------------------------------------------------|
A-666666666666-8888-666666666666-8888-666666666666-8888-666666666666-8~-|
D-666666666666-8888-666666666666-8888-666666666666-8888-666666666666-8~-|
E-444444444444-6666-444444444444-6666-444444444444-6666-444444444444-6~-|
  ************ **** ************ **** ************ **** ************
 *0:10-1:03

Guitar 2
e----------------------------|
B----------------------------|
G-5------6-------------8-----| Play twice
A-5-X16--6-X16--6------8-X16-|
D-3------4------6-X16--6-----|
E---------------4------------|
 *0:32-1:24

Guitar 2
e----------------------|
B----------------------|
G-5~-3~-------5~-3~----|
A-5~-3~-3~-6~-5~-3~-6~-|
D-3~-1~-3~-6~-3~-1~-6~-|
E-------1~-4~-------4~-|
 *1:45

e----------------------------------------XX--The lead part to be-----|
B----------------------------------------XX--played over the ending--|
G-5555----55-33333333--------------------XX--------------------------|
D-5555-55-55-33333333-x2 then --88888888-XX---5------5---------------|
A-3333-55-33-11111111-----------88888888-XX-----6-----6--------------|
E------33-----------------------44444444-XX-4-----4-4----------------|
 *1:55

e-----------------------------------------------|
B-----------------------------------------------|
G-XX5---5-3333333-------------------------------|
D-XX5-5-5-3333333-X3, Then add---------88888888-|Play this whole part twice
A-XX3-5-3-1111111----------------------88888888-|
E-----3--------------------------------44444444-|
 *2:06
Related for This Time Next Year tab