Song name
# A B C D E F G H I J K L M N O P Q R S T U V W X Y Z

Movielife - Once In A Row tab

Amazing song by an amazing band.

Verse
e-------------------|
b-------------------|
g---------------444-|
d-66666-6--222--444-|
a-66666-6--222--222-|
e-44444-4--000------|

pre-Chorus X2
e-------------------|
b-------------------|
g-----2~--6~--2~----|
d 2~--2~--6~--2~----|
a 2~--0~--4~--0~----|
e 0~----------------|

chorus
e------------------------|
b------------------------|
g-------2222--6666--2222-|
d 2222--2222  6666--2222-|
a 2222--0000--4444--0000-|
e 0000-------------------|

break (p.m)
e-------------|     |-------------|
b-------------|     |-------------|
g 6-----------|  X6 |-6~----------|
d 6--6--7--2--|     |-6~-6~-7~-22-|
a 4--6--7--2--|     |-4~-6~-7~-22-|
e ---4--5-----|     |----4~-5~-00-|

Outro
e-----------------------------------------|
b-----------------------------------------|
g------------44444444--77777777--22222222-|
d--22222222--44444444  77777777--22222222-|
a--22222222--22222222  55555555--00000000-|
e--00000000-------------------------------|

If you miss these guys, check out their new band, I Am The Avalance.
Tap to rate this tab
 
# A B C D E F G H I J K L M N O P Q R S T U V W X Y Z