Song name
# A B C D E F G H I J K L M N O P Q R S T U V W X Y Z

Moving Mountains - My Life Is Like A Chase Dream And Im Still Having Chase Dreams tab

DADF#AE

intro
|-0-0-|
|-0-0-|
|-3-3-|
|-3-3-|
|-0-0-|
|-0-5-| x32 fast strumming each

lead guitar when everything starts
|--------------------------------------------|
|--------------------------------------------|
|--------------------------------------------|
|-7(x16), add a bend halfway through--3(x16)-|
|--------------------------------------------|
|--------------------------------------------|

|--------------------------------------------------|
|--------------------------------------------------|
|--------------------------------------------------|
|-7(x16), add a bend halfway through--3(x3)-5(x13)-|
|--------------------------------------------------|
|--------------------------------------------------|

^play twice^

verse
|--------------------------------------------|
|--------------------------------------------|
|-8------------------------------------------|
|-----5---7^(slowbend)-----------------------|
|--------------------------3---5---8---------|
|--------------------------------------------|

^play four times^

before the chorus
frank:
|--------------------------------------------------|
|--------------------------------------------------|
|--------------------------------------------------|
|-00--33--1010--55-5-5---00--33--1010--00-0-0------|
|-00--33--1010--55-5-5---00--33--1010--00-0-0------|
|-00--33--1010--55-5-5---00--33--1010--00-0-0------|
          ^10th fret
play twice, listen for timing
greg:
|--------------------------------------------|
|--------------------------------------------|
|--------------------------------------------|
|-7^(x16)--333-555-0-------------------------|
|--------------------------------------------|
|--------------------------------------------|
x2, listen for the timing

chorus:

|---------------------------------------------|
|---------------------------------------------|
|---------------------------------------------|
|-12-----14---15-----12---8---7---------------|
|-8------10---12-----8----5---0---------------|
|-8------10---12-----8----5---0---------------|
x16     x8   x8     x16  x8  x8

breakdown:

|---------------------------------------------|
|---------------------------------------------|
|---v play twice v----------------------------|
|-0--88-0--88-00-8----------------------------|
|-0—-88-0--88-00-8----------------------------|
|-0—-88-0--88-00-8----------------------------|
    ^kind of pull off on this note to 0
     listen to the song and you’ll know what I mean

|---------------------------------------------|
|---------------------------------------------|
|---v play twice v----------------------------|
|-0--33-0--33-00-3----------------------------|
|-0—-33-0--33-00-3----------------------------|
|-0—-33-0--33-00-3----------------------------|
kind of pull off on the 2nd 3 to 0
Tap to rate this tab
 
# A B C D E F G H I J K L M N O P Q R S T U V W X Y Z