Song name
# A B C D E F G H I J K L M N O P Q R S T U V W X Y Z

Moving Mountains - Furnace Woods Acoustic tab

6/8 time

-------------------------------------------------|
-------------------------------------------------|
2--6-----8-----8-----8--8--6-----2-----2-----2---|
--------9-9---9-9---9-9---------4-4---4-4---4-4--|
-------9---9-9---9-9---9-------4---4-4---4-4---4-|
3--6--7-----7-----7-----7--6--3-----3-----3------|


-------------------------------------------------|
---------0-----0-----0--0------------------------|
2--1-----------------------6-----2-----2-----2---|
--------6-6---6-6---6-6---------4-4---4-4---4-4--|
-------6---6-6---6-6---6-------4---4-4---4-4---4-|
3--1--4-----4-----4-----4--6--3-----3-----3------|
Tap to rate this tab
# A B C D E F G H I J K L M N O P Q R S T U V W X Y Z