Song name
# A B C D E F G H I J K L M N O P Q R S T U V W X Y Z

Moving Mountains - Keep Your Head Above tab

From this video - http://www.youtube.com/watch?v=ug9DHxwlC9E
It's all pretty easy once you get the pattern down.
Standard tuning


E|-----------------------------------------------------------------------|
B|-----------------------------------------------------------------------|
G|---0-------0-------0-------0-------0-------0-------0-------0-----------|
D|-------0-------0-------0-------0-------0-------0-------0-------0-------|
A|-----------------------------------------------------------------------|
E|-3---3---3---3---3---3---3---3---3---3---3---3---3---3---3---3---------|

E|-----------------------------------------------------------------------|
B|-----------------------------------------------------------------------|
G|---0-------0-------------------0-------0-------0-------0---------------|
D|-------4-------2---0---------------0-------0-------0-------0-----------|
A|-----------------------3---2-------------------------------------------|
E|-3---3---3---3---3---3---3---3---3---3---3---3---3---3---3---3---------|

E|-----------------------------------------------------------------------|
B|-----------------------------------------------------------------------|
G|---0-------0-----------------------0-------0-------0-------0-----------|
D|-------4-------2---0-----------0-------0-------0-------0---------------|
A|-----------------------3---2-----------------3---3---3---3-------------|
E|-3---3---3---3---3---3---3---0---0---0---0-----------------------------|


E|------------------------------------|
B|------------------------------------|
G|---0-------0-------0-------0--------|
D|-------0-------0-------0-------0----|
A|------------------------------------|
E|-3---3---3---3---3---3---3---3------|


E|-----------------------------------------------------------------------|
B|-----------------------------------------------------------------------|
G|---0-------0-------------------0-------0-------0-------0---------------|
D|-------4-------2---0---------------0-------0-------0-------0-----------|
A|-----------------------3---2-------------------------------------------|
E|-3---3---3---3---3---3---3---3---3---3---3---3---3---3---3---3---------|

E|-----------------------------------------------------------------------|
B|-----------------------------------------------------------------------|
G|---0-------0-----------------------0-------0-------0-------0-----------|
D|-------4-------2---0-----------0-------0-------0-------0---------------|
A|-----------------------3---2-----------------3---3---3---3-------------|
E|-3---3---3---3---3---3---3---0---0---0---0-----------------------------|


E|------------------------------------|
B|------------------------------------|
G|---0-------0-------0-------0--------|
D|-------0-------0-------0-------0----|
A|------------------------------------|
E|-3---3---3---3---3---3---3---3------|

Chorus thing
E|-----------------------------------------------------------------------|
B|-----------------------------------------------------------------------|
G|-------0-------0-------0-------0-------0-------0-------0-------0-------|
D|---0-------0-------0-------0-------0-------0-------0-------0-----------|
A|-----------------------------------------------------------------------|
E|-8---8---8---8---10--10--10--10--7---7---7---7---8---8---8---8---------|


E|-----------------------------------------------------------------------|
B|-----------------------------------------------------------------------|
G|-------0-------0--------0-------0-------0-------0--------0-------0-----|
D|---0-------0-------0--------0-------0-------0-------0--------0---------|
A|-----------------------------------------------------------------------|
E|-8---8---8---8---10--10--10--10--12--12--12--12--12--12--12--12--------|

E|-----------------------------------------------------------------------|
B|-----------------------------------------------------------------------|
G|-------0-------0-------0-------0-------0-------0-------0-------0-------|
D|---0-------0-------0-------0-------0-------0-------0-------0-----------|
A|-----------------------------------------------------------------------|
E|-8---8---8---8---10--10--10--10--7---7---7---7---8---8---8---8---------|

E|------------------------------------|
B|------------------------------------|
G|-------0-------0-------0-------0----|
D|---0-------0-------0-------0--------|
A|------------------------------------|
E|-5---5---5---5---0---0---0---0------|

E|-----------------------------------------------------------------------|
B|-------1---------------1---------------1----------------1--------------|
G|---------------0---------------0---------------0---------------0-------|
D|---0-------0-------0-------0-------0-------0-------0-------0-----------|
A|-----------------------------------------------------------------------|
E|-3---3---3---3---3---3---3---3---3---3---3---3---3---3---3---3---------|

verse 2

E|-----------------------------------------------------------------------|
B|-----------------------------------------------------------------------|
G|---0-------0-------0-------0-------0-------0-------0-------0-----------|
D|-------0-------0-------0-------0-------0-------0-------0-------0-------|
A|-----------------------------------------------------------------------|
E|-3---3---3---3---3---3---3---3---3---3---3---3---3---3---3---3---------|

E|-----------------------------------------------------------------------|
B|-----------------------------------------------------------------------|
G|---0-------0-------------------0-------0-------0-------0---------------|
D|-------4-------2---0---------------0-------0-------0-------0-----------|
A|-----------------------3---2-------------------------------------------|
E|-3---3---3---3---3---3---3---3---3---3---3---3---3---3---3---3---------|

E|-----------------------------------------------------------------------|
B|-----------------------------------------------------------------------|
G|---0-------0-----------------------0-------0-------0-------0-----------|
D|-------4-------2---0-----------0-------0-------0-------0---------------|
A|-----------------------3---2-----------------3---3---3---3-------------|
E|-3---3---3---3---3---3---3---0---0---0---0-----------------------------|


E|------------------------------------|
B|------------------------------------|
G|---0-------0-------0-------0--------|
D|-------0-------0-------0-------0----|
A|------------------------------------|
E|-3---3---3---3---3---3---3---3------|


E|-----------------------------------------------------------------------|
B|-----------------------------------------------------------------------|
G|---0-------0-------------------0-------0-------0-------0---------------|
D|-------4-------2---0---------------0-------0-------0-------0-----------|
A|-----------------------3---2-------------------------------------------|
E|-3---3---3---3---3---3---3---3---3---3---3---3---3---3---3---3---------|

E|-----------------------------------------------------------------------|
B|-----------------------------------------------------------------------|
G|---0-------0-----------------------0-------0-------0-------0-----------|
D|-------4-------2---0-----------0-------0-------0-------0---------------|
A|-----------------------3---2-----------------3---3---3---3-------------|
E|-3---3---3---3---3---3---3---0---0---0---0-----------------------------|


E|------------------------------------|
B|------------------------------------|
G|---0-------0-------0-------0--------|
D|-------0-------0-------0-------0----|
A|------------------------------------|
E|-3---3---3---3---3---3---3---3------|


Chorus 2
E|-----------------------------------------------------------------------|
B|-----------------------------------------------------------------------|
G|-------0-------0-------0-------0-------0-------0-------0-------0-------|
D|---0-------0-------0-------0-------0-------0-------0-------0-----------|
A|-----------------------------------------------------------------------|
E|-8---8---8---8---10--10--10--10--7---7---7---7---8---8---8---8---------|


E|-----------------------------------------------------------------------|
B|-----------------------------------------------------------------------|
G|-------0-------0--------0-------0-------0-------0--------0-------0-----|
D|---0-------0-------0--------0-------0-------0-------0--------0---------|
A|-----------------------------------------------------------------------|
E|-8---8---8---8---10--10--10--10--12--12--12--12--12--12--12--12--------|

E|-----------------------------------------------------------------------|
B|-----------------------------------------------------------------------|
G|-------0-------0-------0-------0-------0-------0-------0-------0-------|
D|---0-------0-------0-------0-------0-------0-------0-------0-----------|
A|-----------------------------------------------------------------------|
E|-8---8---8---8---10--10--10--10--7---7---7---7---8---8---8---8---------|

E|------------------------------------|
B|------------------------------------|
G|-------0-------0-------0-------0----|
D|---0-------0-------0-------0--------|
A|------------------------------------|
E|-5---5---5---5---0---0---0---0------|

E|-----------------------------------------------------------------------|
B|-------1---------------1---------------1----------------1--------------|
G|---------------0---------------0---------------0---------------0-------|
D|---0-------0-------0-------0-------0-------0-------0-------0-----------|
A|-----------------------------------------------------------------------|
E|-3---3---3---3---3---3---3---3---3---3---3---3---3---3---3---3---------|

End part
E|-----------------------------------------------------------------------|
B|--------------------------------------------------------1---------0----|
G|---0-------0-------0-------0-----------0-------0-----------------------|
D|-------0-------0-------0-------0---2-------2-------0-------0-----------|
A|-----------------------------------------------------------------------|
E|-3---3---3---3---3---3---3---3---0---0---0---0---3---3---3---3---------| (x2)

The last one is this
E|---------------------------------------0~--------0~--------3~--------|
B|---------------------------------------0~--------1~--------3~--------|
G|---0-------0-------0-------0---------- 0~--------0~--------0~--------|
D|-------0-------0-------0-------0------ 2~--------2~--------0~--------|
A|---------------------------------------2~--------3~--------2~--------|
E|-3---3---3---3---3---3---3---3------- -0~--------0~--------3~--------|

I know most of this is pretty accurate, sorry if there are any mess ups. Thanks!
Tap to rate this tab
# A B C D E F G H I J K L M N O P Q R S T U V W X Y Z